Cifra Club

Come Out And Play

Billie Eilish

Cifrado: Principal (guitarra y guitarra eléctrica)
Quer fazer aulas de música com a gente? Responda essas perguntas
e nos ajude nesse projeto! →
tono: A
[Intro] C  F7M  C  F7M

   C
E|------------------------------------------------------------|
B|-------1-------1p0-----------------------1-------1p0--------|
G|-----0-----0---------0-------0---------0-----0--------------|
D|---2---------2-----------2-----------2---------2------------|
A|-3---------------------------------3------------------------|
E|------------------------------------------------------------|

  F7M
E|------------------------------------------------------------|
B|-------1-------1p0-----------------------1-------1p0--------|
G|-----2-----2---------2-------2---------2-----2--------------|
D|---3---------3-----------3-----------3---------3------------|
A|------------------------------------------------------------|
E|-1---------------------------------1------------------------|

[Primeira Parte]

     C 
Wake up and smell the coffee

Is your cup half full or empty?
        F7M
When we talk, you say it softly
                                 C       F7M
But I love it when you're awfully quiet, quiet

    C 
You see a piece of paper

Could be a little greater
     F7M 
Show me what you could make her
                                   C
You'll never know until you try it
                          F7M
You don't have to keep it quiet

[Refrão]

  Dm                             G
E|-------1-------1-------1-------------3-------3-------3-----|
B|-----3-----3-------3---------------3-----3-------3---------|
G|---2---------2-------2-----------0---------0-------0-------|
D|-0---------------------------------------------------------|
A|-----------------------------------------------------------|
E|-------------------------------3---------------------------|
   C           G/B               Am              
E|---------------------------------------------0-------------|
B|-------1-----------0-----------------1---------------------|
G|-----0-----------0-----------------2-----2-----------------|
D|---2-----------0-----------------2---------2---------------|
A|-3-----------2-----------------0---------------------------|
E|-----------------------------------------------------------|

 Dm                             G
E|-------1-------1-------1-------------3-------3-------------|
B|-----3-----3-------3---------------3-----3-----------------|
G|---2---------2-------2-----------0---------0---------------|
D|-0---------------------------------------------------------|
A|-----------------------------------------------------------|
E|-------------------------------3---------------------------|

      Dm                 G 
And I know it makes you nervous
      C       G/B        Am
But I promise you, it's worth it
   Dm                             G
To show 'em everything you kept inside

[Pré-Refrão]

   C             Em             F7M                                         
E|----------------------------------------------------|
B|-1-------------0--------------1---------------------|
G|-0-------------0--------------2---------------------|
D|----------------------------------------------------|
A|-3--------------------------------------------------|
E|---------------0--------------1---------------------|

   C
E|------------------------------------------------------------|
B|-------1-------1p0-----------------------1-------1p0--------|
G|-----0-----0---------0-------0---------0-----0--------------|
D|---2---------2-----------2-----------2---------2------------|
A|-3---------------------------------3------------------------|
E|------------------------------------------------------------|

      C  Em  F7M       C  Em  F    
Don't hi____de, don't hi____de
    C      Em       F7 
Too shy to say, but I hope you stay
      C  Em  F7M
Don't hide away
                  C
Come out and play

[Segunda Parte]

     C
Look up, out of your window

See snow, won't let it in though
      F7M        
Leave home, feel the wind blow
                                     C  
'Cause it's colder here inside in silence
                          F7M
You don't have to keep it quiet

[Refrão]

      Dm                 G 
Yeah, I know it makes you nervous
      C       G/B        Am
But I promise you, it's worth it
   Dm                             G
To show 'em everything you kept inside

[Pré-Refrão]

   C             Em             F7M                                         
E|----------------------------------------------------|
B|-1-------------0--------------1---------------------|
G|-0-------------0--------------2---------------------|
D|----------------------------------------------------|
A|-3--------------------------------------------------|
E|---------------0--------------1---------------------|

   C         Em        F7M                                 
E|-----------------------------------0----------------|
B|-------1---------1---------1------------------------|
G|-----0---------0---------2-----2--------------------|
D|---2---------2---------3---------3------------------|
A|-3--------------------------------------------------|
E|-----------0---------1------------------------------|

      C  Em  F7M       C  Em  F7M
Don't hi____de, don't hi____de
    C      Em       F7M
Too shy to say, but I hope you stay
      C  Em  F7M
Don't hide away
                  C
Come out and play
Composición de Billie Eilish / Finneas O'Connell
Colaboración y revisión:
  • Ana Carolina
  • João Bolognesi
  • Kelvin Veras
2.412 vistas
    • ½ Tono
    • A
    • Bb
    • B
    • C
    • Db
    • D
    • Eb
    • E
    • F
    • F#
    • G
    • Ab
  • Agregar a la lista

    0 comentarios

    Ver todos los comentarios

    ¿Lograste tocar?

    11 Tocaron 0 Aún no

    ¡Graba un video tocando Come Out And Play y envíanoslo!

    00:00 / 00:00
    Outros vídeos desta música
    Repetir Calidad Automático
    Outros vídeos desta música
    00:00 / 00:00
    Automático
    OK