Cifra Club

COPYCAT

Billie Eilish

Tablatura: Principal (guitarra)
Tom: G
[Intro] Em  D

     Em                     D          C              B
E|------7-------7-------7-------------------------8------------7-|         
B|------8-------8-------8------5----------------8------------7---|         
G|------9-------9-------9------7--------------9------------8-----|         
D|----9-9-----9-9-----9-9----7-7-----------10------------9-------|        
A|--7-------7-------7-------5-----------10-------------9---------|        
E|------------------------------------8--------------7-----------|

Em                         D
Don't be cautious, don't be kind
Em                      D
You're committed, I'm your crime
Em                  D
Push my button anytime
C
You got your finger on the trigger
B
But your trigger finger's mine

( Em  D )

Em               D
Silver dollar, golden flame
Em              D
Dirty water, poison rain
Em                        D
Perfect murder, take your aim
C
I don't belong to anyone 
D
But everybody knows my name

    Em                   D         C                       Am
E|-----------0-------0---2-2-2--------0-------0-------0----0-0-0-----|         
B|---0-------0-------0---3-3-3--------1-------1-------1----1-1-1-----|         
G|---0-------0-------0---2-2-2--------0-------0-------0----2-2-2-----|         
D|---2-------2-------2---0-0-0--------2-------2-------2----2-2-2-----|        
A|---2---2-2-2---2-2-2-------------3--3---3-3-3---3-3-3----0-0-0-----|       
E|-0-----0-0-----0-0---------------0------0-0-----0-0----------------|

Em          D   Em                D
    By the way,     you've been uninvited
C                   Am C   B
    'Cause all you say    are all the same things I did

    Em             C      B        C              B
E|-----7------7-------8-----7------------------8------------7-|         
B|-----8------8-------8-----7----------------8------------7---|         
G|-----9------9-------9-----8--------------9------------8-----|         
D|-----9------9------10-----9-----------10------------9-------|        
A|--7------7---------10-----9--------10-------------9---------|        
E|-----------------8------7--------8--------------7-----------|

Em                      C   B
Copycat trying to cop my manner
Em                               C    B
Watch your back when you can't watch mind
E                      C  B
Copycat trying to cop my glamour
C             B
Why so sad, bunny can't have mine

Em                          D
Call me calloused, call me cold
Em                    D
You're italic, I'm in bold
Em                        D
Call me cocky, watch your tone
C                   B
You better love me 'cause you're just a clone

Em          D   Em                D
   By the way,     you've been uninvited
C                   Am  C   B
   'Cause all you say    are all the same things I did

Em                      C   B
Copycat trying to cop my manner
Em                               C    B
Watch your back when you can't watch mind
E                      C  B
Copycat trying to cop my glamor
C             B                   C
Why so sad, bunny can't have mine

C
Mine
D   Em
   I would hate to see you go
                    D
Hate to be the one who told you so
                      Am
You just crossed the line
                  C
You've run out of time
       Em
I'm so sorry, now you know
                 D
Sorry I'm the one that told you so
A
Sorry, sorry, I'm sorry, sorry
       
Psych

Em          D   Em                D
   By the way,     you've been uninvited
C                   Am C     B
   'Cause all you say    are all the same things I did

Em                      C   B
Copycat trying to cop my manner
Em                               C    B
Watch your back when you can't watch mind
E                      C  B
Copycat trying to cop my glamor
C             B
Why so sad, bunny can't have mine
reproducciones 1.633
Acordes para:
    Composição: Billie Eilish / Finneas O\'Connell Colaboración y revision:
    • André Bras
    • Sia Diamond
    • Klevi Albuquerque

    0 comentarios

    mostrar más comentarios

    ¿Conseguiste tocar?

    16 tocaron 4 aún no

    ¡Graba un vídeo tocando COPYCAT y envianoslo!

    00:00 / 00:00
    outros vídeos desta música
    repetir qualidade Automático
    Outros vídeos desta música
    00:00 / 00:00
    Automático
    OK