Cifra Club

Hostage

Billie Eilish

Tablatura: Principal (guitarra)
Tom: C
Am      C  F
I wanna be alone
Am                   C         F
Alone with you, does that make sense?
Am      C          F
I wanna steal your soul
    Am             C        F
And hide you in my treasure chest

Am           C       F
I don't know what to do
   Am                C     F
To do with your kiss on my neck
Am           C          F
I don't know what feels true
    Am                  C      F
But this feels right so stay a sec
      Am                C      F
Yeah, you feel right so stay a sec

           E7                F
And let me crawl inside your veins
             E7                        F
I'll build a wall, give you a ball and chain

              Dm
It's not like me to be so mean
             F
You're all I wanted
            Dm   F
Just let me hold you
       
like a 

   Am            C        F
E|--------------------------------------0--------------------------------|
B|-----------1--------------------1--------------------------------------|
G|--------2-----------------2--------2-----------------------------------|  x2
D|-----2-----------2-----------3-----------------------------------------|
A|--0-----------3--------0-----------------------------------------------|
E|--------------------1--------------------------------------------------|
    hostage


[Verse 3]

   Am            C        F
E|--------------------------------------0--------------------------------|
B|-----------1--------------------1--------------------------------------|
G|--------2-----------------2--------2-----------------------------------|  
D|-----2-----------2-----------3-----------------------------------------|
A|--0-----------3--------0-----------------------------------------------|
E|--------------------1--------------------------------------------------|
   Gold on your fingertips

  Am            C        F
E|--------------------------------------0--------------------------------|
B|-----------1--------------------1--------------------------------------|
G|--------2-----------------2--------2-----------------------------------| 
D|-----2-----------2-----------3-----------------------------------------|
A|--0-----------3--------0-----------------------------------------------|
E|--------------------1--------------------------------------------------|
   Fingertips against my cheek

  Am            C        F
E|--------------------------------------0--------------------------------|
B|-----------1--------------------1--------------------------------------|
G|--------2-----------------2--------2-----------------------------------| 
D|-----2-----------2-----------3-----------------------------------------|
A|--0-----------3--------0-----------------------------------------------|
E|--------------------1--------------------------------------------------|
    Gold leaf across your lips

  Am            C        F
E|--------------------------------------0--------------------------------|
B|-----------1--------------------1--------------------------------------|
G|--------2-----------------2--------2-----------------------------------| 
D|-----2-----------2-----------3-----------------------------------------|
A|--0-----------3--------0-----------------------------------------------|
E|--------------------1--------------------------------------------------|
   Kiss me until I can't speak


[Verse 4]

  Am            C        F
E|--------------------------------------0--------------------------------|
B|-----------1--------------------1--------------------------------------|
G|--------2-----------------2--------2-----------------------------------| 
D|-----2-----------2-----------3-----------------------------------------|
A|--0-----------3--------0-----------------------------------------------|
E|--------------------1--------------------------------------------------|
   Gold chain beneath your shirt

      Am            C        F
E|--------------------------------------0--------------------------------|
B|-----------1--------------------1--------------------------------------|
G|--------2-----------------2--------2-----------------------------------| 
D|-----2-----------2-----------3-----------------------------------------|
A|--0-----------3--------0-----------------------------------------------|
E|--------------------1--------------------------------------------------|
  The shirt that you let me wear home

  Am            C        F
E|--------------------------------------0--------------------------------|
B|-----------1--------------------1--------------------------------------|
G|--------2-----------------2--------2-----------------------------------| 
D|-----2-----------2-----------3-----------------------------------------|
A|--0-----------3--------0-----------------------------------------------|
E|--------------------1--------------------------------------------------|
   Gold's fake and real love hurts

     Am            C        F
E|--------------------------------------0--------------------------------|
B|-----------1--------------------1--------------------------------------|
G|--------2-----------------2--------2-----------------------------------| 
D|-----2-----------2-----------3-----------------------------------------|
A|--0-----------3--------0-----------------------------------------------|
E|--------------------1--------------------------------------------------|
   And nothing hurts when I'm alone

      Am            C        F
E|--------------------------------------0--------------------------------|
B|-----------1--------------------1--------------------------------------|
G|--------2-----------------2--------2-----------------------------------| 
D|-----2-----------2-----------3-----------------------------------------|
A|--0-----------3--------0-----------------------------------------------|
E|--------------------1--------------------------------------------------|
   When you're with me and we're alone


[Chorus]
           E7                F
And let me crawl inside your veins
             E7                        F
I'll build a wall, give you a ball and chain
              Dm
It's not like me to be so mean
             F
You're all I wanted
            Dm   F
Just let me hold you
Dm   F
Hold you
       
Like a 

   Am            C      F
E|--------------------------------------0--------------------------------|
B|-----------1--------------------1--------------------------------------|
G|--------2-----------------2--------2-----------------------------------| 
D|-----2-----------2-----------3-----------------------------------------|
A|--0-----------3--------0-----------------------------------------------|
E|--------------------1--------------------------------------------------|
   hostage

Like a 
   Am            C      F
E|--------------------------------------0--------------------------------|
B|-----------1--------------------1--------------------------------------|
G|--------2-----------------2--------2-----------------------------------| 
D|-----2-----------2-----------3-----------------------------------------|
A|--0-----------3--------0-----------------------------------------------|
E|--------------------1--------------------------------------------------|
   hostage

[Outro]

   Am            C     F
E|--------------------------------------0--------------------------------|
B|-----------1--------------------1--------------------------------------|
G|--------2-----------------2--------2-----------------------------------| 
D|-----2-----------2-----------3-----------------------------------------|
A|--0-----------3--------0-----------------------------------------------|
E|--------------------1--------------------------------------------------|

   Am            C      F
E|--------------------------------------0--------------------------------|
B|-----------1--------------------1--------------------------------------|
G|--------2-----------------2--------2-----------------------------------| 
D|-----2-----------2-----------3-----------------------------------------|
A|--0-----------3--------0-----------------------------------------------|
E|--------------------1--------------------------------------------------|
reproducciones 832
Acordes para:
    Composição: Billie Eilish Colaboración y revision:
    • Gabi Mór

    0 comentarios

    mostrar más comentarios

    ¿Conseguiste tocar?

    13 tocaron 3 aún no

    ¡Graba un vídeo tocando Hostage y envianoslo!

    00:00 / 00:00
    outros vídeos desta música
    repetir qualidade Automático
    Outros vídeos desta música
    00:00 / 00:00
    Automático
    OK