Cifra Club

The 30th

Billie Eilish

Chords: Principal (acoustic and electric guitars)
tone: G
[Intro] G  G/F#  Em  Am  G  D

[Dedilhado - Intro]

Parte 1 De 4
   G              G/F#
E|------------------------------------------|
B|-------3------3-------3--1--0-------------|
G|---0------0-------0-----------------------|
D|------------------------------------------|
A|------------------------------------------|
E|-3---3------3---2---2---------------------|

Parte 2 De 4
   Em
E|------------------------------------------|
B|-------0-----0--------0--1----------------|
G|---0-----0-----0---2----------------------|
D|------------------------------------------|
A|------------------------------------------|
E|-0---0-----0-----0------------------------|

Parte 3 De 4
   Am                G
E|------------------------------------------|
B|-----1-----1p0-----0-----0----------------|
G|-2-----2-------0-----0--------------------|
D|------------------------------------------|
A|---0-----0--------------------------------|
E|-----------------3-----3------------------|

Parte 4 De 4
   D
E|------------------------------------------|
B|-------3-----3-----3--1--0----------------|
G|---2-----2-----2--------------------------|
D|-0---0-----0-----0------------------------|
A|------------------------------------------|
E|------------------------------------------|

[Primeira Parte]

[Dedilhado - Primeira Parte]

Parte 1 De 5
   G              G/F#
E|------------------------------------------|
B|-------0------0-------0-----0-------------|
G|---0------0-------0-----0-----------------|
D|------------------------------------------|
A|------------------------------------------|
E|-3---3------3---2---2-----2---------------|

Parte 2 De 5
   Em
E|------------------------------------------|
B|-------0-----0--------0--1----------------|
G|---0-----0-----0---2----------------------|
D|------------------------------------------|
A|------------------------------------------|
E|-0---0-----0-----0------------------------|

Parte 3 De 5
   Am                G
E|------------------------------------------|
B|-----1-----1p0-----0-----0----------------|
G|-2-----2-------0-----0--------------------|
D|------------------------------------------|
A|---0-----0--------------------------------|
E|-----------------3-----3------------------|

Parte 4 De 5
   D
E|------------------------------------------|
B|-------3-----3-----3--1--0----------------|
G|---2-----2-----2--------------------------|
D|-0---0-----0-----0------------------------|
A|------------------------------------------|
E|------------------------------------------|

Parte 4 de 5 - Variação
   D             D7
E|------------------------------------------|
B|-------3-----0h1-----1-----0--------------|
G|---2-----2---------2---2------------------|
D|-0---0-----0-----0-------0----------------|
A|------------------------------------------|
E|------------------------------------------|

Parte 5 De 5
   Em           D             C
E|----------------------------------------3-|
B|-------0----0-------3-----3-------1-------|
G|---0-----0------2-----2-------0-----0-----|
D|--------------0---0-----0-------------2---|
A|----------------------------3---3---------|
E|-0---0----0-------------------------------|

G      G/F#               Em
  Sometimes you look the same
               Am            G        D
Just like you did before the accident
G               G/F#         Em
  When you're staring into space
                 Am  
It's hard to believe
             G
You don't remember it
 D             D7
Woke up in the ambulance
      Em             D              C
You pieced it all together on the drive

[Refrão]

[Dedilhado - Refrão]

Parte 1 de 4 - 2x
   G             Em
E|------------------------------------------|
B|------------------------------------------|
G|-------0-----0-------0-----0--------------|
D|---0-----0-------2-----2------------------|
A|------------------------------------------|
E|-3---3-----3---0---0-----0----------------|

   C
E|------------------------------------------|
B|------------------------------------------|
G|-------0-----0-----0-----0----------------|
D|---2-----2-----2-----2--------------------|
A|-3---3-----3-----3-----3------------------|
E|------------------------------------------|

Parte 2 De 4
   Em            G
E|------------------------------------------|
B|------------------------------------------|
G|-------0-------------0-----0--------------|
D|---2-----2---0---0-----0------------------|
A|------------------------------------------|
E|-0---0-----0---3---3-----3----------------|

Parte 4 De 4
   C             Em/B
E|------------------------------------------|
B|------------------------------------------|
G|-------0-----0-------0-----0--------------|
D|---2-----2-------2-----2------------------|
A|-3---3-----3---2---2-----2----------------|
E|------------------------------------------|

Parte 3 De 4
   Am                    Cm
E|------------------------------------3-----|
B|-------------1---------------4------------|
G|-------2-----------2-------5------5-------|
D|---2-----2-----2---------5------5---------|
A|-0---0-----0-----0-----3------------------|
E|------------------------------------------|

    G               Em             C
I know you don't remember calling me
       G            
But I told you even
  Em                 C
Then you looked so pretty
      Em       G
In a hospital bed
     C              
I remember you said
Em/B            Am
     You were scared
           Cm
And so was I

[Segunda Parte]

G        G/F#              Em
  In a stand still on the five
                   Am          G
I thought it was unusual, the early traffic
D
Usually I don't panic
G          G/F#         Em
I just wanted to be on time
               Am         G
When I saw the ambulances on the shoulder
   D                    D7
I didn't even think of pulling over
    Em             D                C
I pieced it all together late that night

[Refrão]

    G               Em             C
I know you don't remember calling me
       G            
But I told you even
  Em                 C
Then you looked so pretty
      Em       G
In a hospital bed
     C              
I remember you said
Em/B            Am
     You were scared
           Cm
And so was I

[Ponte]

[Dedilhado - Ponte]

Parte 1 de 2 - 3x
   G             G5+           G6
E|------------------------------------------|
B|------------------------------------------|
G|------------------------------------------|
D|---0---0-----0h1-----1-----1/2-----2------|
A|---------2-------2-----2-------2-----2----|
E|-3---3-----3-------3-----3-------3-----3--|

     G5+
E|------------------------------------------|
B|------------------------------------------|
G|------------------------------------------|
D|-2\1-----1-----1--------------------------|
A|-----2-----2------------------------------|
E|-------3-----3----------------------------|

Parte 2 De 3
   G             G5+           G6          C
E|------------------------------------------|
B|------------------------------------------|
G|-----------------------------------------0|
D|---0---0-----0h1-----1-----1/2-----2-----2|
A|---------2-------2-----2-------2-----2---3|
E|-3---3-----3-------3-----3-------3-----3--|

            G              
What if it happened to you
      G5+
On a different day?
       G6                      
On a bridge where there wasn't
   G5+
A rail in the way?
      G                  
Or a neighborhood street
           G5+
Where the little kids play?
       G6            
Or the Angeles Crest
         G5+
In the snow or the rain?

         G                 
What if you weren't alone?
            G5+
There were kids in the car
         G6              
What if you were remote?
         G5+
No one knows where you are
         G              
If you changed anything
           G5+
Would you not have survived?
         G6                
You're alive, you're alive
         C
You're alive

[Refrão Final]

[Dedilhado - Refrão Final]

[Parte 1 De 3]
   Em            G
E|------------------------------------------|
B|------------------------------------------|
G|-------0-------------0-----0--------------|
D|---2-----2---0---0-----0------------------|
A|------------------------------------------|
E|-0---0-----0---3---3-----3----------------|

Parte 2 De 3
   C             Em/B
E|------------------------------------------|
B|------------------------------------------|
G|-------0-----0-------0-----0--------------|
D|---2-----2-------2-----2------------------|
A|-3---3-----3---2---2-----2----------------|
E|------------------------------------------|

Parte 3 De 3
   Am          Cm           G
E|---------0-----------3----3---------------|
B|-------1-----------4------3---------------|
G|-----2-----------5--------0---------------|
D|---2-----------5----------0---------------|
A|-0-----------3------------2---------------|
E|--------------------------3---------------|

        G            
And I know you don't
   Em             C
Remember calling me
       G             
But I told you even
  Em                 C
Then you looked so pretty
      Em       G
In a hospital bed
     C              
I remember you said
Em/B            Am
     You were scared
Cm             G
   And so am I
00:00 / 00:00
Other videos of this song
Repeat
Other videos of this song
1.555 views
  • Simplify chords
    • ½ Tone
    • A
    • Bb
    • B
    • C
    • Db
    • D
    • Eb
    • E
    • F
    • F#
    • G
    • Ab
  • Add to list

Afinação da cifra

Afinador online

    00:00 / 00:00
    OK