Notificações Amigos pendentes

      Billy Idol

      Mony Mony Intro

      38 reproducciones
      Tono: A#
      I tried to find a decent tab for the song, not just the chords, but couldn't find
      any. Thought I should figure it for myself, but this is the best I can do.
      
      Tuning: Standard.
      
      Part 1:
      
      |-------------------|
      |-------------------|
      |-------------------| Repeat once
      |-------1h2p1---1/3-|
      |-----1-------1-----|
      |-1xx---------------|
      
      
      Part 2:
      
      |--------------------|
      |--------------------|
      |-------8h9p8---8/10-|
      |-----8-------8------|
      |-8xx----------------|
      |--------------------|
      
      
      Part 3:
      
      |---------------------------|
      |---------------------------|
      |----8-10-12b--12p10\9----8-|
      |-10-------------------10---|
      |---------------------------|
      |---------------------------|
      
      
      Thats basically it. With part 3 I sometimes start it with an 8 on d, then
      go to 10, I can't remember right now which way he plays it.
      
      Key:
      x= mute note
      /= slide up
      \= slide down
      h= hammer-on
      p= pull-off

      Comentarios 0

      140 .
      140 cancelar

      ¿conseguiste tocar?

      covers

      ¡Grave un vídeo tocando Mony Mony Intro y envie para nosotros!

      Ex.: http://www.youtube.com/watch?v=0IvSvIwGdwk
      ver cover de otras canciones »
      0:00 / 0:00

      Capitulos

        1 versão de guitarra dificuldad reproducciones contribuición y correción
        1 versão de guitarra eléctrica dificuldad reproducciones contribuición y correción
        1 versão de cavaco dificuldad reproducciones contribuición y correción
        1 versão de teclado dificuldad reproducciones contribuición y correción
        play/pausefechar subir/bajar velocidad
        6ª cuerda E5ª cuerda A4ª cuerda D3ª cuerda G2ª cuerda B1ª cuerda E
          acordes
          publicidad
          cerrar
          ok