Cifra Club

Emotions In Motion

Billy Squier

Tab de bajo: Principal
Selo Cifra Club: esta cifra foi revisada para atender aos critérios oficiais da nossa Equipe de Qualidade.
Tabbed By Fuperman23
Emotions in motion
Great song

Drop D tuning

G---------------------|
D---------------------|       Repeat alot.
A--5-3-5-0-0-3-4-5----|
D------------------0--|


chorus

G--------------------------------------------------|
D--------------------------------------------------|
A-----------------------3-5----------------------3-|
D-7-7-7-5-7-7-7-5-7-7-7----7-7-7-5-7-7-7-5-7-7-7---|

While The Guitar Solos/Outro

G-----------------------|
D-----------------------|
A-5-5-3-0-5-5-3-------0-|     Repeat Alot
D---------------4-5-6---|


Keep Rocking.
Otros videos de esta canción
    47 exhibiciones

    Afinação da cifra

    Afinador online

    Ops (: Contenido disponible solo en portugués.
    OK