Cifra Club

Toda Forma de Poder

Biquini Cavadão

Tab de bajo: Principal
RIFF 1:
G -----------------2--0-----------------------0----------------------------------
D --------0--0--3--------3--2--0--------2--2-----2--0--------------------------0-
A --0--0--------------------------3--3-----------------3--2--0--0-----0--0--3----
E -----------------------------------------------------------------3-------------

G -----------2--0-----------------------0-----------------------------------7\9--
D --0--3--3--------3--2--0--------2--2-----2--0--------------2--------2--0-------
A --------------------------3--3-----------------3--2--0--3-----0--3-------------
E -------------------------------------------------------------------------------

G --7--------------5\7---5--------------3\5---3------
D ---------------------------------------------------
A --------2--5--3--------------0--3--1---------------
E -----3--------------------1--------------------0--0

   RIFF 2:
G --------------------------------------------------------------------------
D --------------------0--0--0--2--2--2--------------------0--0--0--2--2--2--
A --0--3--3--0--------------------------0--3--3--0--------------------------
E --------------3--0--------------------------------3--0--------------------

G -------------------------------------------------------------------------------
D --------------------0--0--0--2--2--2--------------------0--0--0--2--2--2--0--0-
A --0--3--3--0--------------------------0--3--3--0-------------------------------
E --------------3--0--------------------------------3--0-------------------------
                                                                       
G ---------------
D --0------------
A -----3--3--2--1
E ---------------

Toda Forma de Poder

   RIFF 1:
Eu presto atenção no que eles dizem 
Mas eles não dizem nada 
Fidel e Pinochet tiram sarro de você 
Que não faz nada 
Começo a achar normal que algum boçal 
Atire bombas na embaixada 

   RIFF 2:
Se tudo passa, talvez você passe por aqui 
E me faça esquecer tudo que eu vi 

   RIFF 1:
Toda forma de poder 
É uma forma de morrer por nada 
Toda forma de conduta 
Se transforma numa luta armada 
A história se repete 
Mas a força deixa a estória mal contada 

   RIFF 2:
Se tudo passa, talvez você passe por aqui 
E me faça esquecer tudo que eu vi 

   RIFF 1:
O fascismo é fascinante 
Deixa a gente ignorante e fascinada 
É tão fácil ir adiante 
E esquecer que a coisa toda tá errada 
Eu presto atenção no que eles dizem 
Mas eles não dizem nada
Composición de Humberto Gessinger
Colaboración y revisión:
  • João Runco
25 vistas

0 comentarios

Ver todos los comentarios

¿Lograste tocar?

0 Tocaron 0 Aún no

¡Graba un video tocando Toda Forma de Poder y envíanoslo!

00:00 / 00:00
Otros videos de esta canción
Repetir Calidad Automático
Otros videos de esta canción
00:00 / 00:00
Automático
OK