Cifra Club

Don't Stop The Party

Black Eyed Peas

Tab de bajo: Principal
Gb|---------------------------------|
Db|---------------------------------|
Ab|---------------------------------|
Eb|-------11-----------11-----------|
Bb|-9-9-9----12--12-12--------------|

Gb|------------------------------------|
Db|------------------------------------|
Ab|-----------10----------------------6|
Eb|------------------------------------|
Bb|-8-8-8-88--------8-10-11-4-4-4-44---|

Gb|--------------------------------------------------------------|
Db|--------------------------------------------------------------|
Ab|------------------8---------------------5-------6--------6---8|
Eb|--------------------------------------------------------------|
Bb|-4-6-8--6-6-6-66------6-8-10-3-3-3-33------3-4-------3-4--6---|
reproducciones 55

0 comentarios

mostrar más comentarios

¿Conseguiste tocar?

0 tocaron 0 aún no

¡Graba un vídeo tocando Don't Stop The Party y envianoslo!

00:00 / 00:00
outros vídeos desta música
repetir qualidade Automático
Outros vídeos desta música
00:00 / 00:00
Automático
OK