Cifra Club

Showdown

Black Eyed Peas

Cifrado: Principal (guitarra y guitarra eléctrica)
tono: G
E|---------------------------------------------------------------------------|
B|---------------------------------------------------------------------------|
G|---------------------------------------------------------------------------|
D|-------5/10-----10--12--12---10--10---8--8--8------------------------------|
A|-------3/8------8---10--10---8---8----6--6--6------------------------------|
E|---------------------------------------------------------------------------|

E|---------------------------------------------------------------------------|
B|---------------------------------------------------------------------------|
G|---------------------------------------------------------------------------|
D|-------5/10-----12--12--12---10--10---8--8--8------------------------------|
A|-------3/8------10--10--10---8---8----6--6--6------------------------------|
E|---------------------------------------------------------------------------|

E|---------------------------------------------------------------------------|
B|-------8--9--6--4----------------------------------------------------------|
G|---------------------------------------------------------------------------|
D|---------------------------------------------------------------------------|
A|---------------------------------------------------------------------------|
E|---------------------------------------------------------------------------|

Composición de Allen Pineda / Jaime A. Dávila "Tame" Gómez / Jaime Gomez / Ryan Buendia / Stacy Ferguson / William Adams
Colaboración y revisión:
  • Élison Duarte
35 vistas
    • ½ Tono
    • A
    • Bb
    • B
    • C
    • Db
    • D
    • Eb
    • E
    • F
    • F#
    • G
    • Ab
  • Agregar a la lista

    0 comentarios

    Ver todos los comentarios

    ¿Lograste tocar?

    0 Tocaron 0 Aún no

    ¡Graba un video tocando Showdown y envíanoslo!

    00:00 / 00:00
    Outros vídeos desta música
    Repetir Calidad Automático
    Outros vídeos desta música
    00:00 / 00:00
    Automático
    OK