Cifra Club

Fire It Up

Black Label Society

Acordes: Principal
reproducciones 107
Tono: F#
Afinação: Eb Ab Db Gb Bb eb


Talk Box riff:

eb|--------------------------------------------------------------|
Bb|--------------------------------------------------------------|
Gb|--------------------------------------------------------------|
Db|--------------------------------------------------------------|
Ab|--2b(^3)-2-0------------2b(^3)-2-0------2(^3)-2-0-------------|
Eb|--------------2-0-2----------------2--------------2-0-2-------|


Main riff:

eb|-------------------------|-------------------------------------|
Bb|-------------------------|-------------------------------------|
Gb|-----------------play----|-------------------------------------|
Db|------------------2x-----|------------4-4-4-4------------------|
Ab|--4-4-4-4-4-4-4-4--------|---2-2-2-2--2-2-2-2--4-4-4-4---------|
Eb|--2-2-2-2-2-2-2-2-----00-|---0-0-0-0-----------2-2-2-2---00----|


eb|--------------------------------------------------------------|
Bb|--------------------------------------------------------------|
Gb|--------------------------------------------------------------|
Db|--------------------------------------------------------------|
Ab|--------------------------------------------------------------|
Eb|--/6----------/6----------------17\---------------------------|

Keep Moving On






3 guitars:
  Guitar 1
eb|--------------------------------------------------------------|
Bb|----5--------5---------5---------5----------------------------|
Gb|----7^-------7^--------7^--------7^---------------------------|
Db|--------------------------------------------------------------|
Ab|--------------------------------------------------------------|
Eb|--------------------------------------------------------------|
  | 
  | Guitar 2
eb|--------------------------------------------------------------|
Bb|----5-------7----------9--------10----------------------------|
Gb|----7^------9^---------11^------12^---------------------------|
Db|--------------------------------------------------------------|
Ab|--------------------------------------------------------------|
Eb|--------------------------------------------------------------|
  |
  |  Guitar 3 - add vibrato on -5- (B)
eb|--------------------------------------------------------------|
Bb|--------------------------------------------------------------|
Gb|---------5-------5----------5---------5-----------------------|
Db|--------------------------------------------------------------|
Ab|--------------------------------------------------------------|
Eb|--0-00------0-00-------0-00------0-00-------------------------|
  Also, Guitar 3 is whats being played during the solo.







Face your fear...           |  play 4x
eb|-------------------------|-----------------|
Bb|-------------------------|-----------------|
Gb|-------------------------|-----------------|
Db|--2----------------------|-----------------|
Ab|--0------2---------------|-----------------|
Eb|---------0-------17\-----|---0-2-0-2--2ph--|




Face your fear (pt 2)            Rolloffs while lightly sliding down
                                 the string/neck with your RIGHT hand

eb|-----------------------------|---------------------------------|
Bb|-----------------------------|---------------------------------|
Gb|-----------------------------|--5-3-0-5-3-0-5-3-0-5-3-0--------|
Db|--2-------4------4--4-4-4-4--|---------------------------------|
Ab|--0-------2------2--2-2-2-2--|---------------------------------|
Eb|-----------------0--0-0-0-0--|---------------------------------|
Acordes para:
    Composición: Zakk WyldeColaboración y revision:
    • Francisco Jarschel

    0 comentarios

      mostrar mas comentarios

      ¿Conseguiste tocar?

      2tocaron0aún no

      ¡Grave un vídeo tocando Fire It Up y envie para nosotros!

      00:00 / 00:00
      outros vídeos desta música
      repetirqualidadeautomática
      Outro vídeos desta música
        00:00 / 00:00
        automática
        OK