Cifra Club

Like A Bird

Black Label Society

Tablatura: Principal
reproducciones 204
Tono: C
KEY --
        d = down-stroke
        u = up-stroke
        h = hammer on
        p = pull off
        / = slide up
        \ = slide down
        . = palm mute
        x = mute
       () = ghost note

Intro --

                         u       u
E||--------------------------------------------------||
B||------3-------1-------1-------1-------------------||
G||----2-------2-------0-0-------0------0-------0----||
D||--0-------3----------------------------0-------0--||
A||------------------3--------------3-2--------------||
E||-----------------------------------------3-1------||

                         u      d       d   u
E||---------------------------------------------||
B||------3-------1-------1------1-------1---1---||
G||----2-------2---------0----0-0-------0---0---||
D||--0-------3--------------------------2---2---||
A||-------------------------3-----------3---3---||
E||---------------------------------------------||

Drum and bass enter -- (It's something like this, it's not perfect)

      u         u   d   u   d   d    d     u         d u
E||--(0)-------(0)-(0)-(0)-(0)-(0)--(0)---(0)-----------------------------||
B||---3-----3---3---3---3---1---1----1-----1------------------------------||
G||---2---------2---2---2---0---0h2--0-----0-----0---0-0-----0-------0----||
D||---0---0-----0---0---0---3---3----3-----3-----0h2-0-0-------0-------0--||
A||--------------------------------------------3---------3-2--------------||
E||--------------------------------------------------------------3-1------||

*The verses are just variations of the piece above.

Chorus -- (It's a little difficult to tell the strumming pattern since a piano is
involved as well, but here are the chords)

E||-------------------------3--||
B||--1---1---3------1---1---3--||
G||--2---0---2------2---0---0--||
D||--3---2---0------3---2---0--||
A||------3--------------3---x--||
E||-------------------------3--||

Solo:

e/--8--------------------8/10-8---8/10-8------------\-|
B|----8/10\8\6---8-6--------------8/10-8--10\8p6------|
G|-------------7-----7--------------------------7--o--|
D|-------------------------------------------------o--|
A|----------------------------------------------------|
E|----------------------------------------------------|

e/--12-13-12-10-12--8-10--7-8--5-7----8p(5)-5--------------------------\-|
B|--------------------------------------------9-8-6---8---6/8-8/10-------|
G|-------------------------------------------------(7)--7----------10----|
D|-----------------------------------------------------------------------|
A|-----------------------------------------------------------------------|
E|-----------------------------------------------------------------------|

E|--------------------------------------------\-|
B|--3/5-6-5-3--5/6-5-3--(3)-5-6-8-10-8-6-5-3----|
G|----------------------------------------------|
D|----------------------------------------------|
A|----------------------------------------------|
E|----------------------------------------------|
Acordes para:
    Compositor: Zakk WyldeColaboración y revision:
    • Élison Duarte

    0 comentarios

      mostrar más comentarios

      ¿Conseguiste tocar?

      1tocaron0aún no

      ¡Graba un vídeo tocando Like A Bird y envianoslo!

      00:00 / 00:00
      outros vídeos desta música
      repetirqualidadeautomática
      Outro vídeos desta música
        00:00 / 00:00
        automática
        OK