Enviar cifraEntrar

Change

Bleach

Acordes: Principal
reproducciones 1.005
Tono: D
Parte 1:
Em                 C
CHANGE! nabikanai nagasarenai yo
 G                    D
ima kanjiru koto ni sunao de itai no
Em                 C
CHANGE! nando demo umarekawaru no
  G                   D         C9
kanashimi mo dakishimete hashiridasu yo

     C#m       A           E           B
E|----------4-4-----4-----4-----4--------------4------------|
B|--------------7-5---7-5---7-5---7-5-7--7-5-7---7-5--------|
G|--6--6-4-6------------------------------------------------| (2x)
D|----------------------------------------------------------|
A|----------------------------------------------------------|
E|----------------------------------------------------------|


Parte 2:
C#m            A
  Kanashii uragiri ni atte
  E                  B
torawarenai watashi ga koko ni iru no
C#m           A                E                 B
  tarinai tsukinai nani datte Motto hizumasete yo

Parte 3:
C#m               A
  pataan kashita konna sekai ja
E                     B
 jibun ga dare na no ka wakaranaku naru
C#m          A              E         B        A (Riff 1)
  waku ni hamaritakunai wa    Kimetsuke naide yo
Riff 1:

        A          E         C#m
E|-----------------------------|
B|-----------------------------|
G|---------4-------------------|
D|-----2-4-----4--2-4-1--6-----|
A|--4--------------------4-----|
E|-----------------------------|


Pré-Refrão:
  C#m               B
michinakimichi Wo yuku no A
  A            E            F#m           Ab7
soko ni itatte matteitatte nani mo hajimaranai

Refrão:
Em                 C
CHANGE! nabikanai nagasarenai yo
 G                    D
ima kanjiru koto ni sunao de itai no
B      C          G               B7
  dareka no omoidoori ni wa sasenai wa
Em                 C
CHANGE! nando demo umarekawaru no
  G                    D         C       D
kanashimi mo dakishimete hashiridasu yo
 Em                              C    D
anata no moto ni wa mo kaerenai wa
   C9
watashi wa watashi rashiku I wanna chAngE!

     C#m       A           E           B
E|----------4-4-----4-----4-----4--------------4------------|
B|--------------7-5---7-5~--7-5~--7-5-7--7-5-7---7-5--------|
G|--6-6-4-6-------------------------------------------------|
D|----------------------------------------------------------|
A|----------------------------------------------------------|
E|----------------------------------------------------------|

  • 1
  • 2
  • 3
  • 4
  • 5
  • 6
  • 7
  • 8
  • 9
  • 10
  • 11
  • 12
    Acordes para:
      Composición: MiwaColaboración y revision:
      • sasuke123

      0 comentarios

        mostrar mas comentarios

        ¿Conseguiste tocar?

        6tocaron0aún no

        ¡Grave un vídeo tocando Change y envie para nosotros!

        00:00 / 00:00
        outros vídeos desta música
        repetirqualidadeautomática
        • automática
        Outro vídeos desta música
          00:00 / 00:00
          automática
          • automática
          Acordes para:guitarra
          dificuldadreproduccionescontribuciones
          cerrarplay/pause subir/bajar velocidad
            acordes
            cerrar
            OK
            Feedback