Cifra Club

The Bard's Song

Blind Guardian

Cifrado: Principal (guitarra y guitarra eléctrica)
Acompaña nuestras novedades de Cifra Club en español.
¡Sigue nuestro perfil en Instagram!
tono: C
(intro)

E|-0----------------------------------------|
B|----3-1-0--0--1-0----0--------1--3-1-0-1--|
G|------------------0-----2--0--------------|
D|------------------------------------------|
A|-0----------------------------0-----------|
E|-----------3---------0--------------------|

E|-0----------------------------------------|
B|----3-1-0--0--1-0----0--------------------|
G|------------------0-----2--0--2-----------|
D|------------------------------------------|
A|-0----------------------------0-----------|
E|-----------3---------0--------------------|

E|-0---------------------------------------------------------|
B|-----3--1--0---0---1--0------0-------------1---3--1--0--1--|
G|-------------------------0--------2----0-------------------|
D|-----------------------------------------------------------|
A|-0-----------------------------------------0---------------|
E|---------------3-------------0-----------------------------|
 |                                                           |
E|-12--10-8------------------------------8----------8----10--|
B|-----------12--12---10---8---8---10-12-----12--------------|
G|-----------------------------------------------------------|

E|-0-------------------------------------------------|
B|-----3--1--0---0---1--0------0---------------------|
G|-------------------------0--------2----0----2------|
D|---------------------------------------------------|
A|-0------------------------------------------0------|
E|---------------3-------------0---------------------|
 |                                                   |
E|-8--10--8--7---7--------------------7--8--/12~-----|
B|--------------------10---8---8---10----------------|
G|---------------------------------------------------|

(start singing)
E|---0---------------------------------|
B|--------3---1---0----0---1---0---1---|
G|-------------------------------------|
D|-------------------------------------|
A|---0-----------------------------0---|
E|----------------3----0---------------|

(before chorus)
E|-------------------------------------
B|-------------------------------------
G|---5--5-4--4-2--2-4------------------
D|-------------------------------------

    p p
E|-8^7^5-----3-5-----0-------------------------7-8-10-12-----|
B|------------------------6-----3-5---------10---------------|
G|-----------------------------------------------------------|
D|-----------------------------------------------------------|
A|-----------------------------------------------------------|
E|-----------------------------------------------------------|
 |                                                           |
E|-------------0-0----------------0----------0------0--2-----|
B|-------0-1-3----310-------0-1-3--310-----------------------|
G|-----2-------------2----2-----------2----------------------|
D|-------------------------------------------2------2--4-----|
A|-----0------------------0----------------------------------|
E|-----------------------------------------------------------|
                                              h  p
E|-5---7---8--12----------------------/12-10-8^10^8-7-------|
B|----------------13-----6---8---10-8-----------------------|
G|--------------------12------------------------------------|
D|----------------------------------------------------------|
A|----------------------------------------------------------|
E|----------------------------------------------------------|
 |                                                          |
E|------------0----------1---3---5--3---1----0--------------|
B|----------------1-----------------------------------------|
G|-2---4---5----------0-------------------------------------|
D|------------2---------------------------------------------|
A|-0--------------------------------------------------------|
E|----------------------------------------------------------|

                         h  p
E|----10--12-10--15--13-12^13^12-10-----10---17-15----------|
B|-13-------------------------------13----------------------|
G|----------------------------------------------------------|
D|----------------------------------------------------------|
A|----------------------------------------------------------|
E|----------------------------------------------------------|
 |                                                          |
E|-1---0---1--3---1-----0-----------1-----------------------|
B|----------------------------------------------------------|

G|-------------------------------------------2--0-----------|
D|----------------------------------------------------------|
A|----------------------------------------------------------|
E|----------------------------------------------------------|
Composición de André Olbrich / Hansi Kürsch
Colaboración y revisión:
  • Pedro Vidal
472 vistas
  • Simplificar cifrado
    • ½ Tono
    • A
    • Bb
    • B
    • C
    • Db
    • D
    • Eb
    • E
    • F
    • F#
    • G
    • Ab
  • Agregar a la lista

    0 comentarios

    Ver todos los comentarios

    ¿Lograste tocar?

    9 Tocaron 0 Aún no

    ¡Graba un video tocando The Bard's Song y envíanoslo!

    00:00 / 00:00
    Outros vídeos desta música
    Repetir Calidad Automático
    Outros vídeos desta música
    00:00 / 00:00
    Automático
    OK