Cifra Club

Always

Blink-182

Cifrado: Principal (guitarra y guitarra eléctrica)
tono: B
[Intro] 

B5  F#5  G#5  E5
B5  F#5  G#5  E5

Verso 01

     B5    F#/Bb   G#5    F#5
E|-----------------------------|
B|-----------------------------|
G|-----------------------------|
D|---4------4-------4------4---|
A|---2------1-------x------4---|
E|------------------4------2---|

          B5    F#/Bb    G#5    
I've been here before a few times
          B5    F#/Bb    G#5  
And I'm quite aware we're dying
          B5       F#/Bb       G#5     
And your hands they shake with goodbyes
          B5     F#/Bb         G#5      F#5 
And I'll take you back if you'd have me


Pré-Refrão

   B5                 C#5
E|-------------------------------------|
B|---------4-----4------------4-----4--|
G|-----4-----4------------4-----4------|
D|-------------------------------------|
A|-2-2---2-----2------4-4---4-----4----|
E|-------------------------------------|

   G#5                 E5
E|-------------------------------------|
B|---------4-----4---------------------|
G|-----4-----4------------4-----4---4--|
D|-------------------------------------|
A|-------------------------------------|
E|-4-4---------4------0-0---0-0---0----|

 B5       C#5      G#5  E5
So here I am I'm trying
 B5       C#5          G#5  E5
So here I am are you ready


Refrão

     B5    F#5     G#5     E5
E|-----------------------------|
B|-----------------------------|
G|---4------8------------------|
D|---4------x-------6------2---|
A|---2------6-------6------2---|
E|------------------4------0---|

                B5       F#5       G#5     E5
Come on let me hold you touch you feel you Always
 B5       F#5       G#5      E5
Kiss you taste you all night Always


[Instrumental 01] 2x

   B5                 C#5
E|-------------------------------------|
B|---------4-----4------------4-----4--|
G|-----4-----4------------4-----4------|
D|-------------------------------------|
A|-2-2---2-----2------4-4---4-----4----|
E|-------------------------------------|

   G#5                 E5
E|-------------------------------------|
B|---------4-----4---------------------|
G|-----4-----4------------4-----4---4--|
D|-------------------------------------|
A|-------------------------------------|
E|-4-4---------4------0-0---0-0---0----|


[Verso 02] 
 
B5                  F#/Bb     G#5    
And I'll miss your laugh your smile
        B5       F#/Bb           G#5            
I'll admit I'm wrong if you'd tell me
        B5      F#/Bb    G#5      
I'm so sick of fights I hate them
             B5   F#/Bb     G#5  F#5  
Lets start this again for real


[Pré-Refrão] 

 B5       C#5      G#5  E5
So here I am I'm trying
 B5       C#5          G#5  E5
So here I am are you ready

 B5       C#5      G#5  E5
So here I am I'm trying
 B5       C#5          G#5  E5
So here I am are you ready


[Refrão] 
                B5       F#5       G#5
Come on let me hold you touch you feel you
E5
Always
 B5       C#5       G#5
Kiss you taste you all night
E5
Always
                B5       F#5       G#5
Come on let me hold you touch you feel you
E5
Always
 B5       C#5       G#5
Kiss you taste you all night
E5
Always


[Instrumental 02]

[Base] 

B5  C#5  G#5  E5 - 2x
B5  F#5  G#5  E5 - 2x

Solo

E|----------------------------------------------------|
B|----------------------------------------------------|
G|-4-4-4-4-4---3-3-3-3-3---4-4-4-4-4---8-8-8-4-4------|
D|-x-x-x-x-x---x-x-x-x-x---x-x-x-x-x---x-x-x-x-x| (2x)|
A|-2-2-2-2-2---1-1-1-1-1---2-2-2-2-2---6-6-6-2-2------|
E|----------------------------------------------------|

E|----------------------------------------------------|
B|----------------------------------------------------|
G|-4s6s8------6------4-----4s6s8-------6-------4------|
D|-x-x-x------x------x-----x-x-x-------x-------x------|
A|-2s4s6~~~~--4~~~~--2~~~~-2s4s6~~~~---4~~~~---2~~~~--|
E|----------------------------------------------------|

I've been here before a few times

And I'm quite aware we're dying


[Refrão] 


[Final] 

B5  C#5  G#5  E5               B5

E|---------------------| |---------|
B|-4---4---4---4-5-4---| |---------|
G|---4---4---4-------4-| (4x)|--4~~~~--|
D|---------------------| |--4~~~~--|
A|---------------------| |--2~~~~--|
E|---------------------| |---------|
00:00 / 00:00
Otros videos de esta canción
Repetir
Otros videos de esta canción
Composición de Mark Hoppus / Tom DeLonge / Travis Barker
Colaboración y revisión:
7.430 vistas
    • ½ Tono
    • A
    • Bb
    • B
    • C
    • Db
    • D
    • Eb
    • E
    • F
    • F#
    • G
    • Ab
  • Agregar a la lista

    0 comentarios

    Ver todos los comentarios

    ¿Lograste tocar?

    36 Tocaron 1 Aún no

    ¡Graba un video tocando Always y envíanoslo!

    00:00 / 00:00
    OK