Cifra Club

EMO

blink-182

Cifrado: Principal (guitarra y guitarra eléctrica)
Selo Cifra Club: esta cifra foi revisada para atender aos critérios oficiais da nossa Equipe de Qualidade.
tono: A
[Intro] E5  F#5  A5  B5

E|--------------------------|
B|--------------------------|
G|--------------------------|
D|--------------------------|
A|--------------------------|
E|--5--5--5--5--5--5--5-----|

E|--------------------------|
B|--------------------------|
G|---2p1----1------2p1------|
D|--------2---2--------2/4--|
A|--------x------0~~~~------|
E|-0~~~---2~~~~-------------|

[Primeira Parte] 

B5              C#5
  One more time you
     A5            B5
Will laugh without it
                C#5
And he'll never try
   A5       E5
To give you more

E|--------------------------|
B|--------------------------|
G|---2p1---------1h2p1------|
D|--------2-2~~~~------2/4--|
A|--------------------------|
E|-0------------------------|

And I don't care cause
G#5   A5     E5
He is such a dick
He treats you like
    G#5 A5    B5
You a  stupid whore

                  C#5
And it seems like things
     A5    B5
Will never change
                C#5
You go on every cloud
   A5      E5
Is in your way

E|--------------------------|
B|--------------------------|
G|---2p1---------1h2p1------|
D|--------2-2~~~~------2/4--|
A|--------------------------|
E|-0------------------------|

And I know you feel
G#5   A5      E5
Empty all the time
You'll never listen to
G#5      A5
Anything that I say

[Refrão] 

E|------------------------|
B|------------------------|
G|-9-9-9-9-9-9-9-9-9-9-9--|
D|-x-x-x-x-x-x-x-x-x-x-x--|
A|-7-7-7-7-7-7-7-7-7-7-7--|
E|------------------------|

B5
Say She's better off
 A5             C#5  B5
Sleeping on the floor
            A5
Because she fell
      E5       B5
Right off when all
    A5       C#5 B5
Are said you know
      A5     F#5
It's okay to just want more

( E5  F#5  A5  B5 )

E|--------------------------|
B|--------------------------|
G|---2p1----1------2p1------|
D|--------2---2--------2/4--|
A|--------x------0~~~~------|
E|-0~~~---2~~~~-------------|

[Segunda Parte] 

B5               C#5
  Why leave when you
      A5    B5
Claim it is love?
But why stay when
       C#5     A5   E5
You're not the only one?

E|--------------------------|
B|--------------------------|
G|---2p1---------1h2p1------|
D|--------2-2~~~~------2/4--|
A|--------------------------|
E|-0------------------------|

                    G#5  A5
She's proved she's strong
E5             G#5  A5
  Be brave be strong

[Refrão] 

E|------------------------|
B|------------------------|
G|-9-9-9-9-9-9-9-9-9-9-9--|
D|-x-x-x-x-x-x-x-x-x-x-x--|
A|-7-7-7-7-7-7-7-7-7-7-7--|
E|------------------------|

B5
Say She's better off
 A5             C#5  B5
Sleeping on the floor
            A5
Because she fell
      E5       B5
Right off when all
    A5       C#5 B5
Are said you know
      A5     F#5
It's okay to just want more

E|----------------------------------|
B|----------------------------------|
G|-13-13-13-13-13-13-13-13-13-13-13-|
D|-x--x--x--x--x--x--x--x--x--x--x--|
A|-11-11-11-11-11-11-11-11-11-11-11-|
E|-0--0--0--0--0--0--0--0--0--0--0--|

E|----------------------------------|
B|----------------------------------|
G|-14-14-14-14-14-14-14-14-14-14-14-|
D|-x--x--x--x--x--x--x--x--x--x--x--|
A|-12-12-12-12-12-12-12-12-12-12-12-|
E|-0--0--0--0--0--0--0--0--0--0--0--|

E|----------------------------------|
B|----------------------------------|
G|-15-15-15-15-15-15-15-15-15-15-15-|
D|-x--x--x--x--x--x--x--x--x--x--x--|
A|-13-13-13-13-13-13-13-13-13-13-13-|
E|-0--0--0--0--0--0--0--0--0--0--0--|

E|----------------------------------|
B|----------------------------------|
G|-16-16-16-16-16-16-16-16-16-16-16-|
D|-x--x--x--x--x--x--x--x--x--x--x--|
A|-14-14-14-14-14-14-14-14-14-14-14-|
E|-0--0--0--0--0--0--0--0--0--0--0--|

( B5  E5  F#5  A5 )

[Final]

     E5                   F#5         A5
E|------------------------------------------------|
B|------------------------------------------------|
G|------------------------------------------------|
D|------2--2--2--2--2--2--4--4--4--4--7--7--7--7--|
A|-2----2--2--2--2--2--2--4--4--4--4--7--7--7--7--|
E|---0--0--0--0--0--0--0--2--2--2--2--5--5--5--5--|

B5 E5              F#5      A5     B5
  She's better off sleeping on the floor
E5               F#5      A5     B5
She's better off sleeping on the floor
(Because she fell right off her bed)

B5 E5              F#5      A5     B5
  She's better off sleeping on the floor
E5               F#5      A5     B5
She's better off sleeping on the floor
(Because she fell right off her bed)

B5 E5              F#5      A5     B5
  She's better off sleeping on the floor
E5               F#5      A5     B5
She's better off sleeping on the floor
(Because she fell right off her bed)

B5 E5              F#5      A5     B5
  She's better off sleeping on the floor
B5 E5              F#5      A5     B5
  She's better off sleeping on the floor
B5 E5              F#5      A5     B5
  She's better off sleeping on the floor
E5               F#5      A5     E5
She's better off sleeping on the floor
00:00 / 00:00
Otros videos de esta canción
Repetir
Otros videos de esta canción
23.865 exhibiciones
    • ½ Tono
    • A
    • Bb
    • B
    • C
    • Db
    • D
    • Eb
    • E
    • F
    • F#
    • G
    • Ab
  • Agregar a la lista

Afinación de cifrado

Afinador online

    00:00 / 00:00
    OK