Cifra Club

Man Of Constant Sorrow

Blitzen Trapper

Cifrado: Principal (guitarra y guitarra eléctrica)
Selo Cifra Club: esta cifra foi revisada para atender aos critérios oficiais da nossa Equipe de Qualidade.
tono: C
E|--15b17r15-13-15-12-----------------------------|------------------------------------------|
B|-----------------------15b17---17r15-13-15~-----|--------13--------------------------------|
G|------------------------------------------------|--12/14----14\---------10-----------------|
D|------------------------------------------------|-----------------10/12----12\---7~--------|
A|------------------------------------------------|------------------------------------------|
E|------------------------------------------------|------------------------------------------|
 |                                                |                                          |
 |Gtr 2                                           |                                          |
 |  S     S  S  S  S (S) Q       E     S  E.      |  S  S  S  E.    S  S  S  E.    Q         |
E|------------------------------------------------|------------------------------------------|
B|--15b17r15-13-15--------------------------------|------------------------------------------|
G|-----------------14----12b14---14r12-10-12~-----|--------10--------------------------------|
D|------------------------------------------------|--10/12----12\---------10-----------------|
A|------------------------------------------------|-----------------10/12----12\---5~--------|
E|------------------------------------------------|------------------------------------------|

    S     S  S  S  S (S) Q       E     S  E.         S  S  S  E.    S  S  S  E.    S S S S
E|--15b17r15-13-15-12-----------------------------|------------------------------------------|
B|-----------------------15b17---17r15-13-15~-----|--------13--------------------------------|
G|------------------------------------------------|--12/14----14\---------10-----------5-----|
D|------------------------------------------------|-----------------10/12----12\---5/7---7\--|
A|------------------------------------------------|------------------------------------------|
E|------------------------------------------------|------------------------------------------|
 |                                                |                                          |
 |  S     S  S  S  S (S) Q       E     S  E.      |  S  S  S  E.    S  S  S  E.    S S S S   |
E|------------------------------------------------|------------------------------------------|
B|--15b17r15-13-15--------------------------------|------------------------------------------|
G|-----------------14----12b14---14r12-10-12~-----|--------10--------------------------------|
D|------------------------------------------------|--10/12----12\---------10-----------3-----|
A|------------------------------------------------|-----------------10/12----12\---3/5---5\--|
E|------------------------------------------------|------------------------------------------|

[Underneath Guitar 3 is playing this]
  Gtr 3
    E.    S E   S(S)S S E   S S S S      E.    S S S S S S S E   S S S S   (x2)
E|------------------------------------|------------------------------------|
B|o---------x-------x-----------x-x---|----------x-x---x-x-----------x-x--o|
G|--7-----7-x---7---x-7-7---7-7-x-x---|--7-----7-x-x-7-x-x-7-7---7-7-x-x---|
D|----------x-------x-----------x-x---|----------x-x---x-x-----------x-x---|
A|o---------x-------x-----------x-x---|----------x-x---x-x-----------x-x--o|
E|------------------------------------|------------------------------------|

************************************

|  ~   Vibrato
|  \   Slide down
|  x   Dead note
|  /   Slide up
|  b   Bend
|  r   Release bend
|  S   Sixteenth note
|  E   Eighth note
|  Q   Quarter note
|  .   Dotted note
| (N)  Rest
|o o|  Reprise
Otros videos de esta canción
    0 exhibiciones
      • ½ Tono
      • A
      • Bb
      • B
      • C
      • Db
      • D
      • Eb
      • E
      • F
      • F#
      • G
      • Ab
    • Agregar a la lista

    Afinação da cifra

    Afinador online

      Ops (: Contenido disponible solo en portugués.
      OK