Cifra Club

Helicopter

Bloc Party

Cifrado: Principal (guitarra y guitarra eléctrica)
Selo Cifra Club: esta cifra foi revisada para atender aos critérios oficiais da nossa Equipe de Qualidade.
tono: E
(intro)

(guitar 1)
E|------------------------------------
B|------------------------------------
G|------------------------------------
D|-----9-9-7/5-4-4------4---11-11-9-7-
A|------------------------------------
E|--7-7-------------5-5---5-----------

(guitar 2)
E|----------------------------------
B|----------------------------------
G|----------------------------------
D|------7-7-5-5-4-4-------------4---
A|------------------7-7-5-5-7-7---5-
E|--7-7-----------------------------

(verse)

(guitar 1)
E|---------------------------------------
B|---------------------------------------
G|--------------------7-7-7-7--9-9-9-9---
D|-9-9-9-9--9-9-9-9---7-7-7-7--9-9-9-9---
A|-9-9-9-9--9-9-9-9---5-5-5-5--7-7-7-7---
E|-7-7-7-7--7-7-7-7----------------------

(guitar 2)
E|-----------------------------
B|--------7-------10-7---7-----
G|----7-----7---7------7---7---
D|--9---9-----9--------------9-
A|-----------------------------
E|-----------------------------

E|---------------------7-10-------
B|--------7-------8-7-------10-7--
G|----7-----7---7-----------------
D|--9---9-----9-------------------
A|--------------------------------
E|--------------------------------

E|-----------------------------
B|--------7-------10-7---7-----
G|----7-----7---7------7---7---
D|--9---9-----9--------------9-
A|-----------------------------
E|-----------------------------

E|-----------------------------
B|--------7-------8-7----7-----
G|----7-----7---7------7-------
D|--9---9-----9------------9---
A|-----------------------------
E|-----------------------------

(pre-chorus)
E|----------------------------------------------
B|----------------------------------------------
G|--x-x-7-x-x-7-x-x-9-x-x-9-x-x-7-x-x-7-x-x-9-9-
D|--x-x-9-x-x-7-x-x-7-x-x-9-x-x-9-x-x-7-x-x-9-9-
A|------------------------------------------7-7-
E|----------------------------------------------

E|------------------------------------------------
B|------------------------------------------------
G|--x-x-7-x-x-7-x-x-9-x-x-9-x-x-7-x-x-7-x-x-6-7-9-
D|--x-x-9-x-x-7-x-x-7-x-x-9-x-x-9-x-x-7-x-x-------
A|------------------------------------------------
E|------------------------------------------------

(repeat)

(chorus 1)

(guitar 1)
E|----------------------------------------------------------------------
B|----------------------------------------------------------------------
G|----------------------------------------------------------------------
D|--9-9-9-9-9-9-9-9--7-7-7-7-7-7-7-7--5-5-5-5-5-5-5-5--2-2-2-2-2-2-2-2--
A|----------------------------------------------------------------------
E|--7-7-7-7-7-7-7-7--5-5-5-5-5-5-5-5--3-3-3-3-3-3-3-3--0-0-0-0-0-0-0-0--

E|---------------------------------------------------------------
B|---------------------------------------------------------------
G|-4-4-4-4-4-4-4-4--6-6-6-6-6-6-6-6--7-7-7-7-7-7-7-7--12\11-7/9--
D|-4-4-4-4-4-4-4-4--7-7-7-7-7-7-7-7--7-7-7-7-7-7-7-7-------------
A|-2-2-2-2-2-2-2-2--4-4-4-4-4-4-4-4--5-5-5-5-5-5-5-5--10\9--5/7--
E|---------------------------------------------------------------

E|----------------------------------------------------------------------
B|----------------------------------------------------------------------
G|----------------------------------------------------------------------
D|--9-9-9-9-9-9-9-9--7-7-7-7-7-7-7-7--5-5-5-5-5-5-5-5--2-2-2-2-2-2-2-2--
A|----------------------------------------------------------------------
E|--7-7-7-7-7-7-7-7--5-5-5-5-5-5-5-5--3-3-3-3-3-3-3-3--0-0-0-0-0-0-0-0--

(guitar 2)
E|----------
B|-7--------
G|-9^-(11)--
D|----------
A|---------- x16
E|----------

E|-----------------------------------------------------------------
B|-----------------------------------------------------------------
G|-4-4-4-4-4-4-4-4--6-6-6-6-6-6-6-6--7-7-7-7-7-7-7-7--12\11-7/-9---
D|-4-4-4-4-4-4-4-4--7-7-7-7-7-7-7-7--7-7-7-7-7-7-7-7---------------
A|-2-2-2-2-2-2-2-2--4-4-4-4-4-4-4-4--5-5-5-5-5-5-5-5--10\9--5/-7---
E|-----------------------------------------------------------------

E|----------------
B|-10-8-7-5-5-7---
G|--------------7-
D|----------------
A|----------------
E|----------------

(intro)

(guitar 1)
E|------------------------------------
B|------------------------------------
G|------------------------------------
D|-----9-9-7/5-4-4------4---11-11-9-7-
A|------------------------------------
E|--7-7-------------5-5---5-----------

(guitar 2)
E|----------------------------------
B|----------------------------------
G|----------------------------------
D|------7-7-5-5-4-4-2-2-0-0-2-2-4---
A|----------------------------------
E|--7-7-----------------------------

(verse)

(guitar 1)
E|---------------------------------------
B|---------------------------------------
G|--------------------7-7-7-7--9-9-9-9---
D|-9-9-9-9--9-9-9-9---7-7-7-7--9-9-9-9---
A|-9-9-9-9--9-9-9-9---5-5-5-5--7-7-7-7---
E|-7-7-7-7--7-7-7-7----------------------

Guitar 2

E|-----------------------------
B|--------7-------10-7---7-----
G|----7-----7---7------7---7---
D|--9---9-----9--------------9-
A|-----------------------------
E|-----------------------------

E|----------------------------
B|-------7-------8-7---9^(11)-
G|---7-----7---7-----7--------
D|-9---9-----9----------------
A|----------------------------
E|----------------------------

(pre-chorus)
E|----------------------------------------------
B|----------------------------------------------
G|--x-x-7-x-x-7-x-x-9-x-x-9-x-x-7-x-x-7-x-x-9-9-
D|--x-x-9-x-x-7-x-x-7-x-x-9-x-x-9-x-x-7-x-x-9-9-
A|------------------------------------------7-7-
E|----------------------------------------------

E|------------------------------------------------
B|------------------------------------------------
G|--x-x-7-x-x-7-x-x-9-x-x-9-x-x-7-x-x-7-x-x-6-7-9-
D|--x-x-9-x-x-7-x-x-7-x-x-9-x-x-9-x-x-7-x-x-------
A|------------------------------------------------
E|------------------------------------------------

(repeat)

(chorus)

(guitar 1)
E|----------------------------------------------------------------------
B|----------------------------------------------------------------------
G|----------------------------------------------------------------------
D|--9-9-9-9-9-9-9-9--7-7-7-7-7-7-7-7--5-5-5-5-5-5-5-5--2-2-2-2-2-2-2-2--
A|----------------------------------------------------------------------
E|--7-7-7-7-7-7-7-7--5-5-5-5-5-5-5-5--3-3-3-3-3-3-3-3--0-0-0-0-0-0-0-0--

E|-----------------------------------------------------------------
B|-----------------------------------------------------------------
G|-4-4-4-4-4-4-4-4--6-6-6-6-6-6-6-6--7-7-7-7-7-7-7-7--12\11-7/-9---
D|-4-4-4-4-4-4-4-4--7-7-7-7-7-7-7-7--7-7-7-7-7-7-7-7---------------
A|-2-2-2-2-2-2-2-2--4-4-4-4-4-4-4-4--5-5-5-5-5-5-5-5--10\9--5/-7---
E|-----------------------------------------------------------------

E|----------------------------------------------------------------------
B|----------------------------------------------------------------------
G|----------------------------------------------------------------------
D|--9-9-9-9-9-9-9-9--7-7-7-7-7-7-7-7--5-5-5-5-5-5-5-5--2-2-2-2-2-2-2-2--
A|----------------------------------------------------------------------
E|--7-7-7-7-7-7-7-7--5-5-5-5-5-5-5-5--3-3-3-3-3-3-3-3--0-0-0-0-0-0-0-0--

(guitar 2)

E|----------
B|-7--------
G|-9^-(11)--
D|----------
A|---------- x16
E|----------

E|-----------------------------------------------------------------
B|-----------------------------------------------------------------
G|-4-4-4-4-4-4-4-4--6-6-6-6-6-6-6-6--7-7-7-7-7-7-7-7--12\11-7/-9---
D|-4-4-4-4-4-4-4-4--7-7-7-7-7-7-7-7--7-7-7-7-7-7-7-7---------------
A|-2-2-2-2-2-2-2-2--4-4-4-4-4-4-4-4--5-5-5-5-5-5-5-5--10\9--5/-7---
|-----------------------------------------------------------------

E|----------------
B|-10-8-7-5-5-7---
G|--------------7-
D|----------------
A|----------------
E|----------------

(bridge)

(guitar 1)
E|---------------------------
B|-12-(x16)--x-x-x-x-x-x-x-x-
G|---------------------------
D|---------------------------
A|---------------------------
E|---------------------------

(guitar 2)
E|----10------------10-----10---
B|-12--------12--10-----8-------
G|------------------------------
D|------------------------------
A|------------------------------
E|------------------------------

(chorus)

(guitar 1)
E|----------------------------------------------------------------------
B|----------------------------------------------------------------------
G|----------------------------------------------------------------------
D|--9-9-9-9-9-9-9-9--7-7-7-7-7-7-7-7--5-5-5-5-5-5-5-5--2-2-2-2-2-2-2-2--
A|----------------------------------------------------------------------
E|--7-7-7-7-7-7-7-7--5-5-5-5-5-5-5-5--3-3-3-3-3-3-3-3--0-0-0-0-0-0-0-0--

E|-----------------------------------------------------------------
B|-----------------------------------------------------------------
G|-4-4-4-4-4-4-4-4--6-6-6-6-6-6-6-6--7-7-7-7-7-7-7-7--12\11-7/-9---
D|-4-4-4-4-4-4-4-4--7-7-7-7-7-7-7-7--7-7-7-7-7-7-7-7---------------
A|-2-2-2-2-2-2-2-2--4-4-4-4-4-4-4-4--5-5-5-5-5-5-5-5--10\9--5/-7---
E|-----------------------------------------------------------------

E|----------------------------------------------------------------------
B|----------------------------------------------------------------------
G|----------------------------------------------------------------------
D|--9-9-9-9-9-9-9-9--7-7-7-7-7-7-7-7--5-5-5-5-5-5-5-5--2-2-2-2-2-2-2-2--
A|----------------------------------------------------------------------
E|--7-7-7-7-7-7-7-7--5-5-5-5-5-5-5-5--3-3-3-3-3-3-3-3--0-0-0-0-0-0-0-0--

(guitar 2)

E|-15-14-----
B|-------15--
G|-----------
D|-----------
A|-----------
E|-----------
Otros videos de esta canción
    2.306 exhibiciones
      • ½ Tono
      • A
      • Bb
      • B
      • C
      • Db
      • D
      • Eb
      • E
      • F
      • F#
      • G
      • Ab
    • Agregar a la lista

    Afinação da cifra

    Afinador online

      Ops (: Contenido disponible solo en portugués.
      OK