Cifra Club

Good Boys

Blondie

Cifrado: Principal (guitarra y guitarra eléctrica)
tono: A
Tabbed by: *

first tab ok? any coments welcome

Tuning:E A D G B e


| b    bend full
| /    slide up
| \    slide down
| h    hammer-on
| p    pull-off
| ~    vibrato
| x    Mute note
| PM   Palm Mute
| (X)  Ghost Note

fill  first two verses (*&delay)                              
e |----9-9-9--9-9-9\\\----------------|
B |----9-9-9--9-9-9\\\----------------|
G |-----------------------------------|
D |-----------------------------------|
A |-----------------------------------|
E |-----------------------------------|

chorus riff:
gtr.1
e |------------------------------------------------------------------------|
B |-----------------------------------2--2-2-2-2-2-2-2-2-2--2-2-2-2-2-2-2--|
G |---6--6-6-6-6-6-6-9--9-9-9-9-9-9-9-2--2-2-2-2-2-2-2-2-4--4-4-4-4-4-4-4--|
D |---6--6-6-6-6-6-6-9--9-9-9-9-9-9-9-2--2-2-2-2-2-2-2-2-4--4-4-4-4-4-4-4--|
A |---4--4-4-4-4-4-4-7--7-7-7-7-7-7-7-0--0-0-0-0-0-0-0-0-2--2-2-2-2-2-2-2--|
E |------------------------------------------------------------------------|

gtr.2 (sometimes in the chorus) 
e |----9-9-9--9-9-9\\\----------------|
B |----9-9-9--9-9-9\\\----------------|
G |-----------------------------------|
D |-----------------------------------|
A |-----------------------------------|
E |-----------------------------------|

then    fill 2 
gtr.1 
e |---------------------------------|
B |---------------------------------|
G |---------4-----------------------|
D |---6-4-6---6-6-4-------------4---|
A |-----------------4-----4-4-7-----|
E |---------------------------------|

2nd verse:
e |----------------------------------------------------------------|
B |---------------------------------2------------------------------|
G |---6---------------9-------------2-------------4----------------|
D |---6---------------9-------------2-------------4----------------|
A |---4---------------7-------------0-------------2----------------|
E |----------------------------------------------------------------|



Next chorus with fill 1 & 2

 
gtr.1     fill 3
e |------4~--------4~--------4~-------------|
B |------5~--------5~--------5~-------------|
G |---6----6-4-------6p4h6-----6p4h6p4~~----|
D |------------6----------------------------|
A |-----------------------------------------|
E |-----------------------------------------|

the accoustic part fololws the same chords as the chorus
it means: C#  Em   A   B

Then following chorus all fills over the chorus riff 

I think that's all, anyway it sounds 
pretty good once you get the right strumming.
Composición de Debbie Harry / Kevin Griffin
33 vistas
    • ½ Tono
    • A
    • Bb
    • B
    • C
    • Db
    • D
    • Eb
    • E
    • F
    • F#
    • G
    • Ab
  • Agregar a la lista

    0 comentarios

    Ver todos los comentarios

    ¿Lograste tocar?

    0 Tocaron 0 Aún no

    ¡Graba un video tocando Good Boys y envíanoslo!

    00:00 / 00:00
    Outros vídeos desta música
    Repetir Calidad Automático
    Outros vídeos desta música
    00:00 / 00:00
    Automático
    OK