Cifra Club

Hanging On The Telephone

Blondie

Cifrado: Principal (guitarra y guitarra eléctrica)
tono: Bb
1ª Estrofe:

E|----------------------------------------------------|
B|-666666--------666666--8-6h8-6666-------------------|
G|-333333-3------333333-3------3333-3h5p3-------------|
D|---------5-3h5--------------------------3h5p3-------|
A|----------------------------------------------1h3p1-|
E|----------------------------------------------------|

                                 Eb                   Gm
I'm in the phone booth, it's the one across the hall
                                Eb                  Gm
If you don't answer, I'll just ring it off the wall
                       Eb
I know he's there, but I just had to call


Refrão:

E|-------------------------|
B|-------------------------|
G|-8-7-5-------------------|
D|--------3----------------|
A|-6-5-3--------5-----5----|
E|--------1--3-6-6-3-6-6/--|

                Eb            Bb   Gm
Don't leave me hanging on the telephone
                Eb            Bb   Gm
Don't leave me hanging on the telephone


2ª Estrofe:

E|----------------------------------------------------|
B|-666666--------666666--8-6h8-6666-------------------|
G|-333333-3------333333-3------3333-3h5p3-------------|
D|---------5-3h5--------------------------3h5p3-------|
A|----------------------------------------------1h3p1-|
E|----------------------------------------------------|

                               Eb                 Gm
I heard your mother, now she's going out the door
                      Eb                    Gm
Did she go to work or just go to the store?
                             Eb
All those things she said, I told you to ignore


Ponte:

E|---------12121212-15151515-12121212----------------------------------|
B|-13131313-----------------------------------11111111-151515-11111111-|
G|------------------------------------12121212-------------------------|
D|---------------------------------------------------------------------|
A|---------------------------------------------------------------------|
E|---------------------------------------------------------------------|

                Cm          Gm
Oh why can't we talk again?
                Cm          Gm
Oh why can't we talk again?
                Cm          Gm
Oh why can't we talk again?


Refrão:

E|-------------------------|
B|-------------------------|
G|-8-7-5-------------------|
D|--------3----------------|
A|-6-5-3--------5-----5----|
E|--------1--3-6-6-3-6-6/--|

                Eb            Bb   Gm
Don't leave me hanging on the telephone
                Eb            Bb   Gm
Don't leave me hanging on the telephone


3ª Estrofe:

E|----------------------------------------------------|
B|-666666--------666666--8-6h8-6666-------------------|
G|-333333-3------333333-3------3333-3h5p3-------------|
D|---------5-3h5--------------------------3h5p3-------|
A|----------------------------------------------1h3p1-|
E|----------------------------------------------------|

                                   Eb                   Gm
It's good to hear your voice, you know it's been so long
                               Eb                   Gm
If I don't get your calls then everything goes wrong
                              Eb
I want to tell you something you've known all along


Refrão:

E|-------------------------|
B|-------------------------|
G|-8-7-5-------------------|
D|--------3----------------|
A|-6-5-3--------5-----5----|
E|--------1--3-6-6-3-6-6/--|

                Eb            Bb   Gm
Don't leave me hanging on the telephone
                Eb            Bb   Gm
Don't leave me hanging on the telephone


Solo:

E|-----------------------------|---|--------------------|
B|-88-10^-8--------------------|---|--------------------|
G|----------101010-------------|---|-101010-------------|
D|-----------------8h10p8------|X3-|--------8h10p8------|
A|------------------------10-8-|---|---------------10-8-|
E|-----------------------------|---|--------------------|

E|-----------|
B|-----------|
G|-8-7-3-----|
D|-------3-5-|
A|-6-5-1-----|
E|-------1-3-|


4ª Estrofe:

E|----------------------------------------------------|
B|-666666--------666666--8-6h8-6666-------------------|
G|-333333-3------333333-3------3333-3h5p3-------------|
D|---------5-3h5--------------------------3h5p3-------|
A|----------------------------------------------1h3p1-|
E|----------------------------------------------------|

                        Eb                    Gm
I had to interrupt and stop this conversation
                                 Eb                     Gm
Your voice across the line gives me a strange sensation
                              Eb
I'd like to talk when I can show you my affection


Ponte:

E|---------12121212-15151515-12121212----------------------------------|
B|-13131313-----------------------------------11111111-151515-11111111-|
G|------------------------------------12121212-------------------------|
D|---------------------------------------------------------------------|
A|---------------------------------------------------------------------|
E|---------------------------------------------------------------------|

               Cm         Gm
Oh I can't control myself!
               Cm         Gm
Oh I can't control myself!
               Cm         Gm
Oh I can't control myself!


Refrão:

E|-------------------------|
B|-------------------------|
G|-8-7-5-------------------|
D|--------3----------------|
A|-6-5-3--------5-----5----|
E|--------1--3-6-6-3-6-6/--|

                Eb            Bb   Gm
Don't leave me hanging on the telephone

Final::

E|---------------|
B|-------6666666-|
G|-------3333333-|
D|---------------|
A|----5----------|
E|-3-6-6---------|

     Eb                Gm
Hang up and run to me! Oh!
     Eb                Gm
Hang up and run to me! Oh!
     Eb                Gm
Hang up and run to me! Oh!
     Eb                Gm
Hang up and run to me! Oh!
     Eb
Hang up and run to me!


E|-----------|
B|-----------|
G|-8-7-3-----|
D|-------3-5-|
A|-6-5-1-----|
E|-------1-3-|
Composición de Jack Lee
Colaboración y revisión:
  • Wellington Filho
167 vistas
    • ½ Tono
    • A
    • Bb
    • B
    • C
    • Db
    • D
    • Eb
    • E
    • F
    • F#
    • G
    • Ab
  • Agregar a la lista

    0 comentarios

    Ver todos los comentarios

    ¿Lograste tocar?

    0 Tocaron 0 Aún no

    ¡Graba un video tocando Hanging On The Telephone y envíanoslo!

    00:00 / 00:00
    Outros vídeos desta música
    Repetir Calidad Automático
    Outros vídeos desta música
    00:00 / 00:00
    Automático
    OK