Cifra Club

Kung Fu Girls

Blondie

Cifrado: Principal (guitarra y guitarra eléctrica)
tono: D
[Intro] Riff 1  Riff 3
[Base da Introdução]  F#  G  A  B
                      F#  G  A  B

Riff 1
E|--------------------------------|
B|--------------------------------|
G|--------------2--2--------2--4--| (2x)
D|--5--4--2--5--------5--4--------|
A|--------------------------------|
E|--------------------------------|

Riff 3
             A
E|-----------0-------------------|
B|--------4--3-------------------|
G|-----4-----3-------------------|
D|--4--------3-------------------|
A|-----------0-------------------|
E|-------------------------------|

Riff 2
             B
E|-----------0-------------------|
B|-----------4-------------------|
G|--------2--4-------------------|
D|-----2-----4-------------------|
A|--2--------2-------------------|
E|-------------------------------|

A                                      (Riff 2)
Down in chinatown (the year of the Cock) 
B                                      (Riff 3)
He sold the silver belt, put it in hock
A
Fistful of money, mouth full of gold
E                                 A
Soon to be free of all armfull of holes
E       A
Ahhh Ohoouo
E         A                          B     (Riff 3)
She was a kung fu girl, kung fu girl Uh eow
A                                         (Riff 2)
He got the address symbolized in Cantonese
B                                            (Riff 3)
Then asked a native, "Some assistance, please"
A
She took him to the secret door

Riff 4
E|-------------------------------|
B|-------------------------------|
G|--11h9------9v-----------------|
D|--------11---------------------|
A|-------------------------------|
E|-------------------------------|

E      A
He was kissing the floor
E     A
Don't know much more
E         A                          B
She was a kung fu girl, kung fu girl
C#m     G#                     F# (Riff 4)
Heng lu Cindy Sue, difo difong hacking hu
C#m                           G#
In a flash of recollection of oriental pride
F#                         B
She threw him to the side!

( F#  G  A  B )
( F#  G  A  B )

Riff 1
E|--------------------------------|
B|--------------------------------|
G|--------------2--2--------2--4--| (2x)
D|--5--4--2--5--------5--4--------|
A|--------------------------------|
E|--------------------------------|

Riff 3
             A
E|-----------0-------------------|
B|--------4--3-------------------|
G|-----4-----3-------------------|
D|--4--------3-------------------|
A|-----------0-------------------|
E|-------------------------------|

A                                        (Riff 2)
Got the address, gave the door a knock
B ´                                      (Riff 3)
What happened next caused quite a shock
A
She was standing, looking out the door
E      A
He was kicked to the floor
E          A
Don't know much more
E         A                          B
She was a kung fu girl, kung fu girl Uh eow

( C#m G# F# C#m G# F# B )

E        A
Kung fu! Cindy Sue
E               A
Oh, I wanna get close to you
          E       A
You're my kung fu girl
          E       A
You're my kung fu girl
      E        A
Oh my oriental pearl
E        A
Kung fu! Cindy Sue
E               A
Oh, I wanna get close to you
          E       A
You're my kung fu girl
          E       A
You're my kung fu girl! get down

( E  G  E  G )
( E  G  E  G )

Riff 5
E|-----------------------------------------------------------------|
B|-----------------------------------------------------------------|
G|--18b21-21-21-21p18h21-21-21-21p18b21-21-21-21b18b21-18b21-18b21-|
D|-----------------------------------------------------------------|
A|-----------------------------------------------------------------|
E|-----------------------------------------------------------------|







Composición de Debbie Harry / Gary Valentine / Jimmy Destri
Colaboración y revisión:
  • Rafael Silva
15 vistas
    • ½ Tono
    • A
    • Bb
    • B
    • C
    • Db
    • D
    • Eb
    • E
    • F
    • F#
    • G
    • Ab
  • Agregar a la lista

    0 comentarios

    Ver todos los comentarios

    ¿Lograste tocar?

    1 Tocaron 0 Aún no

    ¡Graba un video tocando Kung Fu Girls y envíanoslo!

    00:00 / 00:00
    Outros vídeos desta música
    Repetir Calidad Automático
    Outros vídeos desta música
    00:00 / 00:00
    Automático
    OK