Cifra Club

Pretty Baby

Blondie

Cifrado: Principal (guitarra y guitarra eléctrica)
Acompaña nuestras novedades de Cifra Club en español.
¡Sigue nuestro perfil en Instagram!
tono: G
                                              (2x)
E|--1-1-1-1---1-1-1-1---1-1-1-1---1-1-1-1---1----|
B|--0-0-0-0---0-0-0-0---0-0-0-0---0-0-0-0---0----|
G|--0-0-0-0---0-0-0-0---0-0-0-0---0-0-0-0---0----|
D|--0-0-2-0---0-0-2-0---0-0-2-0---0-0-2-0---0----|
A|--2-2-2-2---2-2-2-2---2-2-2-2---2-2-2-2--------|
E|--3-3-3-3---3-3-3-3---3-3-3-3---3-3-3-3--------|

(interlude)
  Stars, live in...
E|------------------------------------------------|
B|--1-----8\10\12--10---8--10--8--5---10--12--13--|
G|--2---------------------------------------------|
D|--2---------------------------------------------|
A|-------10\12\14--12--10--12--10-7---12--14--15--|
E|------------------------------------------------|

   Pretty baby you look so...
E|--1-1-1-1---1-1-1-1...------|
B|--0-0-0-0---0-0-0-0...------|
G|--0-0-0-0---0-0-0-0...------|
D|--0-0-2-0---0-0-2-0...------|
A|--2-2-2-2---2-2-2-2...------|
E|--3-3-3-3---3-3-3-3...------|

   Heavenly, a neo...
E|--2-2-2-2-2...--------------|
B|--3-3-3-3-3...--------------|
G|--2-2-2-2-2...--------------|
D|----------------------------|
A|----------------------------|
E|----------------------------|

   Nebula, from under the...
E|----------------------------|
B|--1-1-1-1-1-1...------------|
G|--2-2-2-2-2-2...------------|
D|--2-2-2-2-2-2...------------|
A|----------------------------|
E|----------------------------|
   Sun
E|-------------|
B|--1----------|
G|-------------|
D|--2----------|
A|--3----------|
E|-------------|
  The second time "like an avalanche"
E|--2--3------------|
B|--3--5------------|
G|--4--5------------|
D|--4--5------------|
A|--2--3------------|
E|------------------|

(play the interlude again)

(keyboard bit after "look away,oh")
E|--12x-12x-12x-12x-12------------|
B|--------------------------------|
G|--------------------------------|
D|--------------------------------|
A|--------------------------------|
E|--------------------------------|
Composición de Chris Stein / Debbie Harry
Colaboración y revisión:
  • Diego Martins
74 vistas
    • ½ Tono
    • A
    • Bb
    • B
    • C
    • Db
    • D
    • Eb
    • E
    • F
    • F#
    • G
    • Ab
  • Agregar a la lista

    0 comentarios

    Ver todos los comentarios

    ¿Lograste tocar?

    0 Tocaron 0 Aún no

    ¡Graba un video tocando Pretty Baby y envíanoslo!

    00:00 / 00:00
    Outros vídeos desta música
    Repetir Calidad Automático
    Outros vídeos desta música
    00:00 / 00:00
    Automático
    OK