Cifra Club

Freedom

Blood Stain Child

Cifrado: Principal (guitarra y guitarra eléctrica)
Selo Cifra Club: esta cifra foi revisada para atender aos critérios oficiais da nossa Equipe de Qualidade.
tono: C
(intro)  D Bb F C G Bb C Bb C

 D                               D
Mind that longs for peace
       Bb     C          D
Endless war it's our mind
   D                                 D
What is peace? sorrow...pain...anger..
                 Bb        C         D
The world where those all do not live..
 Bb                 C                  D
Peace doesn't exist if there is no dark
 Bb
Everyone understand
 C                  D
How should we advance?
 D                            D
People live android like on here
               Bb        C
Why can you feel happiness?
 D                        D
Why can you laugh and try?
                Bb          C        D
This world is made in light and dark
 Bb                C             D
Angry. feels sorry and painful
 F
Still, the world that can be laugh
 G
It is tomorrow for which we hope
   D               Bb                   F
We can stay this stardust endless space...

      C
It is our universe
    G                 Bb
We can feel stardust endless space..
  Bb                 C
Sightless where is a peace?
  Bb                 C
Endless, what is a peace?
   D                   Bb               F
We can stay this stardust endless space...
     C
Dive into the freedom
  G                             Bb
We can feel stardust endless space..
  Bb                   C
Lasting, where is our space?
  Bb                   C
Trusting, what is our space?

D
wave
Why do you live in this world?
What do you live in this world?
Where do you live in this world?

Say, feel, lights out
How do you live in this world?
wave...

D |-|------------------------------------------|
A |-|--8--8--8--8--8--8--7--7--7--7--7--7--5---|
E |-|------------------------------------------|

D (abafado)

(solo piano)

Life, peace, space, live
And universe, feel, fly
No we can stay here

(solo)
E |-|--------------------------------------------------------------------------------------|
B |-|----------------------------------10--8--10--13--13--11--10---------------------------|
G |-|--10--9--10--10--10--9---------------------------------------10--12--10---------------|
D |-|------------------------10--8--7------------------------------------------------------|
A |-|--------------------------------------------------------------------------------------|
E |-|--------------------------------------------------------------------------------------|

(essa 2° parte é mais facil fazer com "two hands")

E |-----------------------------------------------------------------------------------------------------------------15--17--18--20-------|
B |12-13-15-12-13-15-12-13-15-12-13-15-12-13-15-12-13-15-12-13-15-------------------------------------------13--13-----------------------|
G |----------------------------------------------------------------13-14-16-13-14-16-13-14-16-13-14-16--16-------------------------------|
D |--------------------------------------------------------------------------------------------------------------------------------------|
A |--------------------------------------------------------------------------------------------------------------------------------------|
E |--------------------------------------------------------------------------------------------------------------------------------------|

   D                Bb                   F
We can stay this stardust endless space...
      C
It is our universe
    G                 Bb
We can feel stardust endless space..
  Bb                 C
Sightless where is a peace?
  Bb                 C
Endless, what is a peace?
   E                   C               G
We can stay this stardust endless space...
     D
Dive into the freedom
  A                             C
We can feel stardust endless space..
  C                   D
Lasting, where is our space?
  C                   D
Trusting, what is our space?
Otros videos de esta canción
    60 exhibiciones
      • ½ Tono
      • A
      • Bb
      • B
      • C
      • Db
      • D
      • Eb
      • E
      • F
      • F#
      • G
      • Ab
    • Agregar a la lista

    Afinação da cifra

    Afinador online

      Ops (: Contenido disponible solo en portugués.
      OK