Cifra Club

Best In Me

Blue

Cifrado: Principal (guitarra y guitarra eléctrica)
tono: C
Intro  
 
E|--------------------------------------------------------------------------- 
A|--5--------0-------------5-----------0------------------------------------- 
D|----5---------2-------------5-----------2---------------------------------- 
G|------3---------2--------------3----------2-------------------------------- 
B|--------3----------1-------------3----------1------------------------------ 
E|--------3----------0-------------3----------0------------------------------ 
 
(INTRO CHORDS) 
From the moment I met you I knew youd be mine 
You touched my hand and I knew this was gonna be our time 
 
Bm7                              E7 
I dont ever want to lose this feeling 
F                               G                               
I dont want to spend a moment apart 
 
Chorus (Not figured this part out as yet) 
 
Cos you bring out the best in me 
Like no one else can do 
thats why Im by your side 
And thats why I love you 
 
E|--------------------------------------------------------------------------- 
A|--5--------0-------------5-----------0------------------------------------- 
D|----5---------2-------------5-----------2---------------------------------- 
G|------3---------2--------------3----------2-------------------------------- 
B|--------3----------1-------------3----------1------------------------------ 
E|--------3----------0-------------3----------0------------------------------ 
 
(INTRO CHORDS) 
Every day that Im here with you I know that It feels right (So right) 
Cos Ive just got to be near to you every day and every night (Every Night) 
 
(these chords picked on same strings as intro but join the f and g together by 
going back on the e,b,g strings) 
 
Bm7                             E7 
And you know that we belong together 
F                         G 
It just had to be you and me 
 
Chorus 
 
Cos you bring out the best in me 
Like no one else can do 
thats why Im by your side 
And thats why I love you 
 
Bridge (Chorus chords) 
 
Bm7                              E7 
And you know that we belong together 
F                         G  
It just had to be you and me 
 
Cos you bring out the best in me 
Like no one else can do 
Thats why Im by your side........ 
 
You bring out the best in me 
Like no one else can do 
Thats why Im by your side 
And thats why I love you (love you, love you, love you Baby) 
 
You bring out the best (you bring out the best in me) the best in me 
Like no one else can do..... 
And thats why Im by your side 
 
And thats why I love you...
00:00 / 00:00
Otros videos de esta canción
Repetir
Otros videos de esta canción
Composición de Bill Padley
39 vistas
    • ½ Tono
    • A
    • Bb
    • B
    • C
    • Db
    • D
    • Eb
    • E
    • F
    • F#
    • G
    • Ab
  • Agregar a la lista

    0 comentarios

    Ver todos los comentarios

    ¿Lograste tocar?

    0 Tocaron 0 Aún no

    ¡Graba un video tocando Best In Me y envíanoslo!

    00:00 / 00:00
    OK