Cifra Club

Clover Over Dover

Blur

Tab de bajo: Principal
(intro)
G|-------------------------------|
D|-------------------------------|
A|-------------------------------|
E|---0-5-7-----------------------|

(verse x2)
G|-----------------------------------------------------|
D|-----------------------------------------------------|
A|-----9---7-------------------------------------------|
E|-9-----9---9-9-7-5-4-5---7---7/----------------------|

G|-----------------------------------------------------|
D|-----------------------------------------------------|
A|-----9---7------------------7------------------------|
E|-9-----9---9-9-7-5-4-5---7---7/----------------------|

G|-----------------------------------------------------|
D|-----------------------------------------------------|
A|---9---7---------------------------------------------|
E|-9---9---9---9-7-5-4-5---7---7/----------------------|

G|-----------------------------------------------------|
D|-----------------------------------------------------|
A|-----9---7-----------7---9---------------------------|
E|-9-----9---9-9-7-5-----------9-----------------------|

(chorus)
G|-----------------------------------------------------|
D|-----------------------------------------------------|
A|-----------------------------------------------------|
E|-9-0-9-7---0-7-5---0-5-4---0-4-5---0-5-5---0-5-6-7---|

(verse x2)
(chorus x2)
(verse)

(verse #2)
G|---------------------9-6---4-6-----------------------|
D|-----------------------------------------------------|
A|-----9---7-------------------------------------------|
E|-9-----9---9-9-7-5-----------------------------------|

G|-----------------------------------------------------|
D|-----------------------------------------------------|
A|-----9---7-----------7---9---------------------------|
E|-9-----9---9-9-7-5-----------9-----------------------|

G|---------------------9-6---4-6-----------------------|
D|-----------------------------------------------------|
A|-----9---7-------------------------------------------|
E|-9-----9---9-9-7-5-----------------------------------|

G|-----------------------------------------------------|
D|-----------------------------------------------------|
A|-----9---7-------------------------------------------|
E|-9-----9---9-9-7-5-0-4-5-7---7-----------------------|

(chorus x4)
(verse)
reproducciones 23

0 comentarios

mostrar más comentarios

¿Conseguiste tocar?

0 tocaron 0 aún no

¡Graba un vídeo tocando Clover Over Dover y envianoslo!

00:00 / 00:00
outros vídeos desta música
repetir qualidade Automático
Outros vídeos desta música
00:00 / 00:00
Automático
OK