Cifra Club

I Broadcast

Blur

Tablatura: Principal (guitarra)
Tom: D
Intro:
E|--14-14-14-14-14--12--12--14-14-14------|
B|--15-15-15-15-15--14--14--15-15-15------|
G|----------------------------------------|
D|----------------------------------------|
A|----------------------------------------|
E|----------------------------------------|

D  E  F

D                     E        F
I love the aspects of another city
D                   E     F
The representatives are alright
D                 E             F
In circulation the snake and the tiger
D                          E        F
Waking up clean shaven in industrial light

D A G
     I broadcast
D A            G
  Buzzing on another day now
D A          G
  All for a cold sore
D A               G
  Something out of nothing

E|----------------------------------------|
B|----------------------------------------|
G|----------------------------------------|
D|----------------------------------------|
A|-17-17-16s14----------------------------|
E|-------------17s15-15s17s15s13s15s13----|

D                     E        F
I love the aspects of another city
D                          E        F
It's got your number and your blood type
D                         E        F
They've been in cages, I need some focus
D                            E        F
The apparitions of another prodigal night
Right?

D  A  G

     I broadcast
D A             G
  Buzzing on another day now
D A          G
  All for a high score
D A           G
  Something out of nothing...I broadcast

E|----------------------------------------|
B|----------------------------------------|
G|----------------------------------------|
D|----------------------------------------|
A|-17-17-16s14----------------------------|
E|-------------17s15-15s17s15s13s15s13----|
I'm running
I'm running
I'm running

D A G
     I broadcast
D A            G
  Buzzing on another day now
D A          G
  All for a cold sore
D A               G
  Something out of nothing

D A G
     I broadcast
D A            G
  Buzzing on another day now
D A          G
  All for a cold sore
D A               G
  Something out of nothing
reproducciones 9
Acordes para:
    Colaboración y revision:
    • Nathália Sobral

    0 comentarios

    mostrar más comentarios

    ¿Conseguiste tocar?

    0 tocaron 1 aún no

    ¡Graba un vídeo tocando I Broadcast y envianoslo!

    00:00 / 00:00
    outros vídeos desta música
    repetir qualidade Automático
    Outros vídeos desta música
    00:00 / 00:00
    Automático
    OK