Cifra Club

Lonesome Street

Blur

Tablatura: Principal (guitarra)
Tom: F#
Intro:
|----------------------------------------------------------------------|
|------------------------------------------5////////////////////-------|
|---14-15-16-14----------------------------6////////////////////-------|
|----------------16-14-13----------------------------------------------|
|---------------------------14-12--------------------------------------|
|---------------------------------14-12-11-----------------------------|

Começa a música: 
    D5       A5      D5      A5
|-------------------------------|
|------xxxx----xxx-----xxx------|
|-7-7--xxxx----xxx-7-7-xxx------|
|-7-7--xxxx-77-xxx-7-7-xxx-77---|
|-5-5--xxxx-77-xxx-5-5-xxx-77---|
|------xxxx-55-xxx-----xxx-55---|
  
    B5       A5     B5       A5
|--------------------------------|
|-----xxxx----xxx------xxx-------|
|-4-4-xxxx----xxx-4-4--xxx-------|
|-4-4-xxxx-77-xxx-4-4--xxx-777---|
|-2-2-xxxx-77-xxx-2-2--xxx-777---|
|-----xxxx-55-xxx------xxx-555---|

Pausa:
Primeira guitarra
|------------------------------------------------------------------------------|
|-19b--20-19-17~-20-19-17~--20-19-17~----11--11-11--11--11---------------------|
|--------------------------------------11--11--11-11--11--11--11--11--11--11---|
|-----------------------------------------------------------12--12--12--12-----|
|------------------------------------------------------------------------------|
|------------------------------------------------------------------------------|

|------------------------------------------------------------------------|
|--------------------------------------------5////////////////////-------|
|---14-15-16-14------------------------------6////////////////////-------|
|----------------16-14-12------------------------------------------------|
|---------------------------14-12----------------------------------------|
|---------------------------------14-12-10-7-----------------------------|


Segunda Guitarra
    B    F#   A     B
|-----------------------|
|-----------------------|
|-4----3----6-----8-----|
|-4----4----7-----9-----| 
|-2----4----7-----9-----|
|------2----5-----7-----|


Ponte:
|------------------------------------------------------|
|------------------------------------------------------|
|-4------4---9---9--7b---5--5-3h4--5-3h4---4---2----1v-|
|-4----4-------9----7b---------------------4-----------|
|-2--2-------------------------------------2-----------|
|------------------------------------------------------|

|--------------------------|
|--------------------------|
|----9-----7b-----3b--3b---|
|-------9-----9---4b--4b---| 
|--------------------------|
|--------------------------|

Solo:
|-----------------------------------|
|-20-17-18b----**-----20-17-18v-----|
|-----------------------------------|
|-----------------------------------|
|-----------------------------------|
|-----------------------------------|

|--------------------------------------------|
|--------------------------------------------|
|---14-15-16-14------------------------------|
|----------------16-14-12--------------------|
|---------------------------14-12------------|
|---------------------------------14-12-10-7-|
reproducciones 111
Acordes para:
    Composição: Damon Albarn Colaboración y revision:
    • Daniel Broder
    • Nathália Sobral

    0 comentarios

    mostrar más comentarios

    ¿Conseguiste tocar?

    0 tocaron 1 aún no

    ¡Graba un vídeo tocando Lonesome Street y envianoslo!

    00:00 / 00:00
    outros vídeos desta música
    repetir qualidade Automático
    Outros vídeos desta música
    00:00 / 00:00
    Automático
    OK