Cifra Club

Aprenda

Mirrorball

Blur

Tablatura: Principal (guitarra)
tono: G
 Intro: Em  C/G
E|--------------------------|
B|--------------------------|
G|------------2--4--2--0----|
D|------0--2-------------2--|     (2x)
A|---2----------------------|
E|--------------------------|

       Em               C/G
Mirrorball on a Jordan train
                     Em
I was under sea then up for air 
       A     C/G  Bm
I did not retain 

       Em                      C/G
Ocean Park where the seagulls cry
                   Em
I remember flying dragons too
       A         C/G
I was there with you
    Bm
So before you log out
  Em            C/G
Hold close to me
               Em Am Bm
Hold close to me

   Em           C/G
E|--------------------------|
B|--------------------------|
G|------------2--4--2--0----|
D|------0--2-------------2--|     (2x)
A|---2----------------------|
E|--------------------------|

         Em                 C/G
I'll be back when December comes
                       Em
All the barriers have been pulled down
         A    C/G Bm
Where is everyone?
          Em
Oh Mirrorball
                       C/G
You're spinning out to sea
                          Em
Think I found you in the temple square
           A        C/G
Under the wishing tree
    Bm
So cry your eyes out
 Em             C/G
Hold close to me
               Em Am Bm
Hold close to me

         Em            C/G

E|---------0-------------0--|
B|---------0-------------1--|
G|---------0--2--4--2--0-0--|
D|------0--2-------------2--|
A|---2-----2-------------3--|
E|---------0-------------3--|

                     Em       A   C/G   Bm
|--------------------0--------0----0----2--2--------2--------2--------2--------|
|--------------------0--------2----1----3-----3--------3--------3--------3-----|
|--------------------0--------2----0----4--------4--------4--------4--------4--|
|--4--2--4--2--0-----2--------2----2----4--------------------------------------|
|-----------------0--2--2--0--0----3----2--------------------------------------|
|--------------------0-------------3-------------------------------------------|
 
 Bm
I cried my eyes out
 Em             C/G
Hold close to me
               Em C/G
Hold close to me
 Em             C/G
Hold close to me
               Em
Hold close to me
Composição de Damon Albarn / David Rowntree / Graham Coxon / Steven Alexander James
Colaboración y revision:
  • Nathália Sobral
20 reproducciones
    • ½ Tono
    • A
    • Bb
    • B
    • C
    • Db
    • D
    • Eb
    • E
    • F
    • F#
    • G
    • Ab
  • Adicionar à lista

    0 comentarios

    Ver todos os comentários

    ¿Conseguiste tocar?

    0 Tocaram 0 Ainda não

    Grave um vídeo tocando Mirrorball e nos envie!

    00:00 / 00:00
    outros vídeos desta música
    repetir qualidade Automático
    Outros vídeos desta música
    00:00 / 00:00
    Automático
    OK