Cifra Club

Aprenda

New World Towers

Blur

Tablatura: Principal (guitarra)
tono: C
 Am              Em
 green green the neon green
 F         G
 new world towers
 Am            Em
 carved out of grey white skies
 F            G
 twenty four hours
 Am                   Em              D
 i glide through the glass arcade to hollywood

     Dm     G       Dm       G
 the cycle path it leaves me dreaming of
 
 Am            Em
 love love so far away
 F          G
 new world towers
 Am            Em
 logging your name and pray
 F            G
 twenty four hours
 Am              Em              D
 green turns to red and blue and time relates
 
      Dm     G       Dm       G
 to us all again and see the rescue
 
 Am              Em
 green green the neon green
 F          G
 new world towers
 Am              Em
 plane flying overhead
 F          G
 satellite showers
 Am              Em            D
 falls like confetti on the calvalcade

      Dm        G
 the flashboat seas?
      Dm       G
 reflecting in you
 
Solo

E|---------------------------------------------------------------------------|
B|---------------------------------------------------------------------------|
G|---------------------------------------------------------------------------|
D|--10--9--7--5--7----5--2--5--2---------------------------------------------| x3
A|--------------------------------5--3--5--3-----------3--5--7--5b-----------|
E|--------------------------------------------5--3--5------------------------|

E|---------------------------------------------------------------------------|
B|---------------------------------------------------------------------------|
G|---------------------------------------------------------------------------|
D|---------------------------------------------------------------------------|
A|-----3--5--7--5~---3--5~---3--5--3------------3--5--7--5~--------7/5-------|
E|--5---------------------------------5--3---5----------------5h3------------|

 seven on me
 seven on me
 seven on a left hand side
 seven on me
 (seven on me)
 (seven on me)

 Am            Em
 love love so far away
 F          G
 new world towers
 Am            Em
 carved out of grey white skies
 F            G
 twenty four hours
 Am              Em              D
 green turns to red and blue and time relates

      Dm        G
 the flashboat seas?
      Dm       G
 reflecting in you

Solo

E|---------------------------------------------------------------------------|
B|---------------------------------------------------------------------------|
G|---------------------------------------------------------------------------|
D|--10--9--7--5--7----5--2--5--2---------------------------------------------| x3
A|--------------------------------5--3--5--3-----------3--5--7--5b-----------|
E|--------------------------------------------5--3--5------------------------|

E|---------------------------------------------------------------------------|
B|---------------------------------------------------------------------------|
G|---------------------------------------------------------------------------|
D|---------------------------------------------------------------------------|
A|-----3--5--7--5~---3--5~---3--5--3------------3--5--7--5~--------7/5-------|
E|--5---------------------------------5--3---5----------------5h3------------|
Composição de Alex James / Damon Albarn / Dave Rowntree / Graham Coxon
Colaboración y revision:
  • Nathália Sobral
25 reproducciones
    • ½ Tono
    • A
    • Bb
    • B
    • C
    • Db
    • D
    • Eb
    • E
    • F
    • F#
    • G
    • Ab
  • Adicionar à lista

    0 comentarios

    Ver todos os comentários

    ¿Conseguiste tocar?

    0 Tocaram 0 Ainda não

    Grave um vídeo tocando New World Towers e nos envie!

    00:00 / 00:00
    outros vídeos desta música
    repetir qualidade Automático
    Outros vídeos desta música
    00:00 / 00:00
    Automático
    OK