Cifra Club

Ong Ong

Blur

Tablatura: Principal (guitarra)
Tom: C
Intro (2x)  
E|-------------------------------------------------------------------|
B|--1---1-1-1---1-1-1-1-1-1---1-1-1---1-1-1-3---3-3-1-1-1-1---1-1-1--|
G|--0---0-0-0---0-0-0-0-0-0---0-0-0---2-2-2-4---4-4-0-0-0-0---0-0-0--|
D|--2---2-2-2---2-2-2-2-2-2---2-2-2---3-3-3-5---5-5-2-2-2-2---2-2-2--|
A|--3---3-0-3---3-0-3-3-0-3---0-3-0---3-3-3-5---5-5-3-3-0-3---0-3-0--|
E|-------------------------------------------------------------------|

  C
I got on a boat on a hot sunny day
F          G       C
To get out of this town
           C
'cause the tarmac was melting and the people seemed to sway
F            G    C
Stuck in the underground

       C
To the isle of the black kites and the wishing tree
F       G       C
I wanna be with you
     C
On the slow boat to Lantau through misty seas
F       G       C
I wanna be with you

E|-------------------------------------------------------------------|
B|--1---1-1-1---1-1-1-1-1-1---1-1-1---1-1-1-3---3-3-1-1-1-1---1-1-1--|
G|--0---0-0-0---0-0-0-0-0-0---0-0-0---2-2-2-4---4-4-0-0-0-0---0-0-0--|
D|--2---2-2-2---2-2-2-2-2-2---2-2-2---3-3-3-5---5-5-2-2-2-2---2-2-2--|
A|--3---3-0-3---3-0-3-3-0-3---0-3-0---3-3-3-5---5-5-3-3-0-3---0-3-0--|
E|-------------------------------------------------------------------|

  C
I pulled out the harbour with precession behind
        F           G       C
And I'm feeling the love of you
       C
So you better get to charge until I see you again
F             G       C
You know just what to do

          C
If you're caught up in the gales on the junk boat sea
F       G       C
I wanna be with you
         C
With the pilgrims the mountain in the high trapeze
F       G       C
I wanna be with you

C
F  G
C

C
F  G
C

            C
If you're the landlord, the social on P.S.T
F       G       C
I wanna be with you
      C
On an island of rainclouds and verdant seas
F         G          C
I will be there with you, oh
 
E|-------------------------------------------------------------------|
B|--1---1-1-1---1-1-1-1-1-1---1-1-1---1-1-1-3---3-3-1-1-1-1---1-1-1--|
G|--0---0-0-0---0-0-0-0-0-0---0-0-0---2-2-2-4---4-4-0-0-0-0---0-0-0--|
D|--2---2-2-2---2-2-2-2-2-2---2-2-2---3-3-3-5---5-5-2-2-2-2---2-2-2--| (2x)
A|--3---3-0-3---3-0-3-3-0-3---0-3-0---3-3-3-5---5-5-3-3-0-3---0-3-0--|
E|-------------------------------------------------------------------|
reproducciones 157
Acordes para:
    Colaboración y revision:
    • Nathália Sobral

    0 comentarios

    mostrar más comentarios

    ¿Conseguiste tocar?

    1 tocaron 0 aún no

    ¡Graba un vídeo tocando Ong Ong y envianoslo!

    00:00 / 00:00
    outros vídeos desta música
    repetir qualidade Automático
    Outros vídeos desta música
    00:00 / 00:00
    Automático
    OK