Cifra Club

Song 2

Blur

Tablatura: Principal (guitarra)
Tom: Ab (con acordes en la forma de A) Afinação: Eb Ab Db Gb Bb Eb
Introdução - Parte 1: F#5  E5  A5  B5  C#5  (clean - 2x)

   F#5         E5
E|------------------------------------------|
B|------------------------------------------|
G|-11--11--x-x-9--9--9--x-x-----------------|
D|-11--11--x-x-9--9--9--x-x-----------------|
A|-9---9---x-x-7--7--7--x-x-----------------|
E|------------------------------------------|
   ↓   ↓   ↓ ↑ ↓  ↓  ↓  ↓ ↑

   A5      B5  C#5
E|------------------------------------------|
B|-10--10--12--14--14--14--14--14--x--------|
G|-9---9---11--13--13--13--13--13--x--------|
D|-7---7---9---11--11--11--11--11--x--------|
A|------------------------------------------|
E|------------------------------------------|
   ↓   ↓   ↓   ↓   ↓   ↓   ↓   ↓   ↓


Introdução - Parte 2: F#5  E5  A5  B5  C#5  (distorção - 4x)

   F#5         E5
E|------------------------------------------|
B|------------------------------------------|
G|------------------------------------------|
D|-4--4--4--4--2--2--2--2-2-----------------|
A|-4--4--4--4--2--2--2--2-2-----------------|
E|-2--2--2--2--0--0--0--0-0-----------------|
   ↓  ↓  ↓  ↓  ↓  ↓  ↓  ↓ ↑

   A5    B5 C#5
E|------------------------------------------|
B|------------------------------------------|
G|-2--2--4--6--6--6--6--0-------------------|
D|-2--2--4--6--6--6--6--0-------------------|
A|-0--0--2--4--4--4--4--0-------------------|
E|------------------------------------------|
   ↓  ↓  ↓  ↓  ↓  ↓  ↓  ↓

(Guitarra 2 - Riff 1)

E|----------------------------------------------------|
B|----------------------------------------------------|
G|-14-14-14-14-14-14-14-14-14-14-14-14-14-14-14-14----|
D|----------------------------------------------------|
A|----------------------------------------------------|
E|----------------------------------------------------|
   ↓  ↓  ↓  ↓  ↓  ↓  ↓  ↓  ↓  ↓  ↓  ↓  ↓  ↓  ↓  ↓

Woo-hoo
Woo-hoo
Woo-hoo
Woo-hoo


Primeira Parte:

(Riff das Estrofes)

I got my head checked
By a jumbo jet
It wasn't easy
But nothing is, no


Refrão:

   F#5         E5
E|------------------------------------------|
B|------------------------------------------|
G|------------------------------------------|
D|-4--4--4--4--2--2--2--2-2-----------------|
A|-4--4--4--4--2--2--2--2-2-----------------|
E|-2--2--2--2--0--0--0--0-0-----------------|
   ↓  ↓  ↓  ↓  ↓  ↓  ↓  ↓ ↑

   A5    B5 C#5
E|------------------------------------------|
B|------------------------------------------|
G|-2--2--4--6--6--6--6--0-------------------|
D|-2--2--4--6--6--6--6--0-------------------|
A|-0--0--2--4--4--4--4--0-------------------|
E|------------------------------------------|
   ↓  ↓  ↓  ↓  ↓  ↓  ↓  ↓

   F#5         E5
E|------------------------------------------|
B|------------------------------------------|
G|------------------------------------------|
D|-4--4--4--4--2--2--2--2-2-----------------|
A|-4--4--4--4--2--2--2--2-2-----------------|
E|-2--2--2--2--0--0--0--0-0-----------------|
   ↓  ↓  ↓  ↓  ↓  ↓  ↓  ↓ ↑

   A5    B5 C#5
E|------------------------------------------|
B|------------------------------------------|
G|-2--2--4--6--6--6--6--0-------------------|
D|-2--2--4--6--6--6--6--0-------------------|
A|-0--0--2--4--4--4--4--0-------------------|
E|------------------------------------------|
   ↓  ↓  ↓  ↓  ↓  ↓  ↓  ↓

   F#5         E5
E|------------------------------------------|
B|------------------------------------------|
G|------------------------------------------|
D|-4--4--4--4--2--2--2--2-2-----------------|
A|-4--4--4--4--2--2--2--2-2-----------------|
E|-2--2--2--2--0--0--0--0-0-----------------|
   ↓  ↓  ↓  ↓  ↓  ↓  ↓  ↓ ↑

   A5    B5 C#5
E|------------------------------------------|
B|------------------------------------------|
G|-2--2--4--6--6--6--6--0-------------------|
D|-2--2--4--6--6--6--6--0-------------------|
A|-0--0--2--4--4--4--4--0-------------------|
E|------------------------------------------|
   ↓  ↓  ↓  ↓  ↓  ↓  ↓  ↓

   F#5
E|------------------------------------------|
B|------------------------------------------|
G|------------------------------------------|
D|-4--4--4--4--4--4--4--4-------------------|
A|-4--4--4--4--4--4--4--4-------------------|
E|-2--2--2--2--2--2--2--2-------------------|
   ↓  ↓  ↓  ↓  ↓  ↓  ↓  ↓

   A5
E|------------------------------------------|
B|------------------------------------------|
G|-2--2--2--2--2--2--2--2-------------------|
D|-2--2--2--2--2--2--2--2-------------------|
A|-0--0--0--0--0--0--0--0-------------------|
E|------------------------------------------|
   ↓  ↓  ↓  ↓  ↓  ↓  ↓  ↓

   D5
E|------------------------------------------|
B|------------------------------------------|
G|-7--7--7--7--7--7--7--7-------------------|
D|-7--7--7--7--7--7--7--7-------------------|
A|-5--5--5--5--5--5--5--5-------------------|
E|------------------------------------------|
   ↓  ↓  ↓  ↓  ↓  ↓  ↓  ↓

E|------------------------------------------|
B|------------------------------------------|
G|-7--7--7--7--7--7--7--7-------------------|
D|-7--7--7--7--7--7--7--7-------------------|
A|-5--5--5--5--5--5--5--5-------------------|
E|------------------------------------------|
   ↓  ↓  ↓  ↓  ↓  ↓  ↓  ↓

Woo-hoo
When I feel heavy metal
Woo-hoo
And I'm pins and I'm needles
woo-hoo
Well I lie and I'm easy
All of the time but
I'm never sure why I need you
Pleased to meet you


Segunda Parte:

(Riff das Estrofes)

I got my head down
When I was young
It's not my problem
It's not my problem


Refrão:

Woo-hoo
When I feel heavy metal
Woo-hoo
And I'm pins and I'm needles
Woo-hoo
Well I lie and I'm easy
All of the time but
I'm never sure why I need you
Pleased to meet you


Final:

(Final)

(Guitarra 2 - Riff 2)

E|----------------------------------------------------|
B|-14-14-14-14-14-14-14-14-14-14-14-14-14-14-14-14----|
G|-14-14-14-14-14-14-14-14-14-14-14-14-14-14-14-14----|
D|----------------------------------------------------|
A|----------------------------------------------------|
E|----------------------------------------------------|
   ↓  ↓  ↓  ↓  ↓  ↓  ↓  ↓  ↓  ↓  ↓  ↓  ↓  ↓  ↓  ↓

Yeah, yeah
Yeah, yeah
Yeah, yeah
Oh, yeah
reproducciones 15.136
Acordes para:

    0 comentarios

    mostrar más comentarios

    ¿Conseguiste tocar?

    30 tocaron 1 aún no

    ¡Graba un vídeo tocando Song 2 y envianoslo!

    00:00 / 00:00
    outros vídeos desta música
    repetir qualidade Automático
    Outros vídeos desta música
    00:00 / 00:00
    Automático
    Capítulos
    • Início
    • Afinação
    • Tocando a música
    • Acordes da Introdução - Parte 1
    • Tocando Introdução - Parte 1
    • Ensinando Introdução - Parte 1
    • Acordes da Introdução - Parte 2
    • Tocando Introdução - Parte 2
    • Ensinando Introdução Parte 2
    • Ensinando Riff 1
    • Acordes do Refrão
    • Tocando Primeira Parte e Refrão
    • Ensinando Refrão
    • Tocando Repetições e Final
    • Ensinando Riff 2
    • Encerramento
    OK