Cifra Club

Swamp Song

Blur

Tablatura: Principal (guitarra)
Tom: C
Afinação: D A D G B E 

[Intro] F  Gm  Bb  Cm  Dm  Eb  Dm  Cm
        F  Gm  Bb  Cm  Dm  Eb  Dm  Cm

(Riff 1)

E|----------------------------------------------------|
B|----------------------------------------------------|
G|----------------------------------------------------|
D|--3-5--5/8--8/10--10/12--12/13--13/12--10-----------| (4X)
A|--3-5--5/8--8/10--10/12--12/13--13/12--10-----------|
E|--3-5--5/8--8/10--10/12--12/13--13/12--10-----------|

[Primeira Parte]

(Riff 1)

Give me good times
Give me saliva
Give me fever
I'm a believer, yeah, yeah

Give me insane
Give me space brain
Give me music, give me love
Abandon us in love

[Refrão]

(Riff 1)

Give me good times (I wanna be with you)
There no joke rhymes (I know you want me too)
Give me easy breathing (I wanna be with you)
Give me everything, everything, everything (I know you want me too)
Wakah, wakah

[Ponte]

E|----------------------------------------------------|
B|----------------------------------------------------|
G|----------------------------------------------------|
D|-/13-13-13-13----8--10-10---8--10-10---8------------| (2x)
A|-/13-13-13-13----8--10-10---8--10-10---8------------|
E|-/13-13-13-13----8--10-10---8--10-10---8------------|

E|----------------------------------------------------|
B|----------------------------------------------------|
G|----------------------------------------------------|
D|--5--7-7----5--7-7---/11-11--/11-11-----------------|
A|--5--7-7----5--7-7---/11-11--/11-11-----------------|
E|--5--7-7----5--7-7---/11-11--/11-11-----------------|

E|----------------------------------------------------|
B|----------------------------------------------------|
G|----------------------------------------------------|
D|--5--7-7----5--7-7---/11/---------------------------|
A|--5--7-7----5--7-7---/11/---------------------------|
E|--5--7-7----5--7-7---/11/---------------------------|

[Primeira Parte]

(Riff 1)

E|----------------------------------------------------|
B|----------------------------------------------------|
G|----------------------------------------------------|
D|--3-5--5/8--8/10--10/12--12/13--13/12--10-----------| (4X)
A|--3-5--5/8--8/10--10/12--12/13--13/12--10-----------|
E|--3-5--5/8--8/10--10/12--12/13--13/12--10-----------|

Give me good times
Give me saliva
Give me fever
I'm a believer

Give me insane (I wanna be with you)
Gimme space brain (I know you want me too)
Don't leave me ever (I wanna be with you)
We'll live forever (I know you want me too)

Yes, we will
I know we will

[Ponte]

E|----------------------------------------------------|
B|----------------------------------------------------|
G|----------------------------------------------------|
D|-/13-13-13-13----8--10-10---8--10-10---8------------| (2x)
A|-/13-13-13-13----8--10-10---8--10-10---8------------|
E|-/13-13-13-13----8--10-10---8--10-10---8------------|

E|----------------------------------------------------|
B|----------------------------------------------------|
G|----------------------------------------------------|
D|--5--7-7----5--7-7---/11-11--/11-11-----------------|
A|--5--7-7----5--7-7---/11-11--/11-11-----------------|
E|--5--7-7----5--7-7---/11-11--/11-11-----------------|

E|----------------------------------------------------|
B|----------------------------------------------------|
G|----------------------------------------------------|
D|--5--7-7----5--7-7---/11/---------------------------|
A|--5--7-7----5--7-7---/11/---------------------------|
E|--5--7-7----5--7-7---/11/---------------------------|

[Primeira Parte]

(Riff 1)

E|----------------------------------------------------|
B|----------------------------------------------------|
G|----------------------------------------------------|
D|--3-5--5/8--8/10--10/12--12/13--13/12--10-----------| (4X)
A|--3-5--5/8--8/10--10/12--12/13--13/12--10-----------|
E|--3-5--5/8--8/10--10/12--12/13--13/12--10-----------|

Give me good times
Give me saliva
Give me fever
I'm a believer, you know I am

Give me insane (I wanna be with you)
Give me space brain (I know you want me too)
Give me music, give me love (I wanna be with you)
Abandon us in love (I know you want me too)

Stick it in my veins
Stick it in my veins
Stick it in my veins
reproducciones 46
Acordes para:
    Composição: Alex James / Damon Albarn / Dave Rowntree / Graham Coxon Colaboración y revision:
    • Getúlio Vasconcelos

    0 comentarios

    mostrar más comentarios

    ¿Conseguiste tocar?

    0 tocaron 0 aún no

    ¡Graba un vídeo tocando Swamp Song y envianoslo!

    00:00 / 00:00
    outros vídeos desta música
    repetir qualidade Automático
    Outros vídeos desta música
    00:00 / 00:00
    Automático
    OK