Cifra Club

Tracy Jacks

Blur

Tablatura: Principal (guitarra)
Tom: B
(intro) G#m7    A    B    A

 G#m7   A           G#m7       A
(Tracy Jacks) works in civil service
 G#m7   A           G#m7       A
(Tracy Jacks) it's steady employment
 B      A           B          A
(Tracy Jacks) is a golfing fanatic
 B      A           B          A
(Tracy Jacks) but his put is erratic
 G#m7   A           G#m7       A
(Tracy Jacks) saw a Harley Street doctor
 G#m7   A           G#m7       A
(Tracy Jacks) who prescribed healthy living
 B      A           B          A
(Tracy Jacks) but he's getting past forty
 B      A           B
(Tracy Jacks) and all his seams are splitting

(refrão)
Every day he got closer
He knew in his heart he was over
I'd love to stay here and be normal
But it's just so overrated

    G                                                  B
E|-------------------------------------------------------------|
B|------3-----------3---------4---------4-------------4--------|
G|---4----4------4----4-----4----4---4-----4-------4-----4-----|
D|-5-----------5----------4--------4------------4--------------|
A|-------------------------------------------------------------|
E|-------------------------------------------------------------|
    PM
                  E                                                       F#
E|---------------------4-------------4-------------------------|
B|-----3--4--5------5-----5------5------5----------------------|
G|-2h4-----------4------------4--------------------3-----------|
D|---------------------------------------------4------4--------|
A|------------------------------------------4------------------|
E|-------------------------------------------------------------|
    PM
                                        B
E|-----------------------------------------|
B|-----------------------4-----------4-----|
G|-3h4--2------------4------4-----4-----4--|
D|---------4--2---4------------4-----------|
A|-----------------------------------------|
E|-----------------------------------------|

 G#m7   A            G#m7          A
(Tracy Jacks) left home without warning
 G#m7   A            G#m7          A
(Tracy Jacks) at five in the morning
 B      A            B             A
(Tracy Jacks) got on the first train to Walton
 B      A            B             A
(Tracy Jacks) and stood on the sea front laughing
 G#m7   A            G#m7          A
(Tracy Jacks) threw his clothes in the water
 G#m7   A            G#m7          A
(Tracy Jacks) and ran around naked
 B      A            B             A
(Tracy Jacks) got stopped by the police
 B      A            B
(Tracy Jacks) and escorted back home where

(refrão)

 G#m7   A     G#m7   A
(Tracy Jacks) uu     iuhh
 G#m7   A     G#m7   A
(Tracy Jacks) uu     iuhh
 B      A     B      A
(Tracy Jacks) uu     iuhh
 B      A     B      A
(Tracy Jacks) uu     iuhh

G#m7                     A       B
And then it happened on a Tuesday morning
G#m7            A                    B
Tracy Jacks bulldozed down the house he lived in

Saying, 'It's just so overrated!'

E|-4-------------|  x 4     e|-2-2----------|x 3  e|-2-2--------|
B|-4-------------|          B|-4-4----------|     B|-4-4--------|
G|-4-------------|          G|-2-2----------|     G|-2-2--------|
D|-6-------------|          D|-4-4----------|     D|-4-4--------|
A|-6--5-5-4-2-0--|          A|-2-2-0-2-0----|     A|-2-2--------|
E|-4-------------|          E|--------------|     E|------------|

E|-4-------------|  x 4     e|-2-2----------|x 3  e|-2-2--------|
B|-4-------------|          B|-4-4----------|     B|-4-4--------|
G|-4-------------|          G|-2-2----------|     G|-2-2--------|
D|-6-------------|          D|-4-4----------|     D|-4-4--------|
A|-6--5-5-4-2-0--|          A|-2-2-0-2-0----|     A|-2-2--------|
E|-4-------------|          E|--------------|     E|------------|
reproducciones 197
Acordes para:
    Composição: Alex James / Damon Albarn / Dave Rowntree / Graham Coxon Colaboración y revision:
    • Lizandra

    0 comentarios

    mostrar más comentarios

    ¿Conseguiste tocar?

    0 tocaron 0 aún no

    ¡Graba un vídeo tocando Tracy Jacks y envianoslo!

    00:00 / 00:00
    outros vídeos desta música
    repetir qualidade Automático
    Outros vídeos desta música
    00:00 / 00:00
    Automático
    OK