Cifra Club

Under The Westway

Blur

Tablatura: Principal (guitarra)
Tom: C
(Intro)

           C/G              Em/G        Am Am/G
There were blue skies in my city today
F              Em/B        Dm/F                   F*
Everything was sinking, said snow would come on sunday
G/D                Am            G        F
The old school was due and the traffic grew
  Fm
Up on the West way

C/G           Em/G             Am             Am/G
Where I stood watching comets lonesome trails
F           Em/B          Dm/F         F*
Shining up above me the jet fuel it fell
G/D     Am              G                F
Down to earth where the money always comes first
 Fm
And the sirens sing

(Solo) Os acordes continuam iguais aos da primeira parte.

C/G                    Em/G                    Am Am/G
Bring us the day they switch off the machines
F                  Em/B             F5-               F*
Cos men in yellow jackets putting adverts inside my dreams
G/D          Am           G/D           F
An automated song and the whole world gone
 Fm
Fallen under the spell of

C/G             Em/G                Am      Am/G
The distance between us when we communicate
F                Em/B         F5-              F*
Still picking up shortwave, somewhere they're out in space
    G/D               Am             G/D        F
It depends how you're wired when the night's on fire
 Fm
Under the West way

(Ponte)

         C/G          Em/G              Am Am/G
Now it's magic arrows hitting the bull
F         Em/B           F5-             F*
Doing one eighty still standing at last call
         G/D          Am           G/D        F
When the flags coming down and the Last Post sounds
     Fm
Just like a love song

 C/G    Em/G                  Am Am/G
For the way I feel about you
F           Em/B              F5-     F*
 Paradise's not lost, it's in you
     G/D       Am       G/D       F
On a permanent basis I apologise
    Fm
But I am going to sing

(Pausa)

C/G Em/G

     Am    Am/G
Hallelujah
F           Em/B                Dm/F    F*
Sing it out loud and sing it to you
     G/D         Am
Am I lost out at sea
       G         F      Fm
'Til a tide wash me up off the West way

C

----------------------------------------------
(Intro)
E|-8-7-8-7-8-7-7-8-7-8-7-8-|

(Solo)

E|---------------------------------------------------|
B|------5h6h5----------5h6h5h6--5--3--1--------------|
G|----------------------------------------4-5-4------|
D|-----------------------------------------------3-3-|
A|--577------------577--------------------2-3-2--3-3-|
E|-8--------------8------------------------------1-1-|

(Ponte)
E|----------------------------------------------|
B|----------------------------------------------|
G|--12-12-10-10--9-9-7-7-5-5-4-4-5-5-4-4-5-5-5-5|
D|----------------------------------------------|
A|--10-10--8--8--7-7-5-5-3-3-2-2-3-3-2-2-3-3-3-3|
E|----------------------------------------------|
reproducciones 354
Acordes para:
    Composição: Damon Albarn / Graham Coxon/alex James/dave Rowntree Colaboración y revision:
    • João Pequeno

    0 comentarios

    mostrar más comentarios

    ¿Conseguiste tocar?

    0 tocaron 0 aún no

    ¡Graba un vídeo tocando Under The Westway y envianoslo!

    00:00 / 00:00
    outros vídeos desta música
    repetir qualidade Automático
    Outros vídeos desta música
    00:00 / 00:00
    Automático
    OK