Cifra Club

Aprenda

Baby Let Me Follow You Down

Bob Dylan

Tablatura: Principal (guitarra)
tono: G
    G   F   C   Eb G/B  D/A C/E D   C   D   G

E|--3---1---0---3---7---5---3---2---0---2---2-|
B|--0---1---1---4---8---7---5---3---1---3---0-|
G|--0---2---0---3---7---7---5---2---0---2---0-|
D|--0---3---2---0---0---0---0---0---2---0---0-|
A|--2---0---3-----------------------3-------2-|
E|--3---0---0-----------------------0-------3-|

Electric:

+ This version is dead easy, Its from when Bob Dylan plaid with The Band on the Last Waltz

+ No Capo needed and tuning is E B G D A E

    G G  F  G   F F  C C

E|---2-2--1--2---1-1--0-0------|R
B|---0-0--1--0---1-1--1-1------|E
G|---0-0--2--0---2-2--0-0------|P
D|---0-0--3--0---3-3--2-2------|E
A|---2-2--0--2---0-0--3-3------|A
E|---3-3--0--3---0-0--0-0------|T
Composição de Eric Von Schmidt
Colaboración y revision:
  • Élison Duarte
151 reproducciones
    • ½ Tono
    • A
    • Bb
    • B
    • C
    • Db
    • D
    • Eb
    • E
    • F
    • F#
    • G
    • Ab
  • Adicionar à lista

    0 comentarios

    Ver todos os comentários

    ¿Conseguiste tocar?

    0 Tocaram 0 Ainda não

    Grave um vídeo tocando Baby Let Me Follow You Down e nos envie!

    00:00 / 00:00
    outros vídeos desta música
    repetir qualidade Automático
    Outros vídeos desta música
    00:00 / 00:00
    Automático
    OK