Cifra Club

Tangled Up in Blue

Bob Dylan

Cifrado: Principal (guitarra y guitarra eléctrica)
tono: G
(intro) (4x)
E |---------2-----------0----|
B |----3------3----1------1--|
G |------2-----------0-------|
D |--0-----------0-----------|
A |--------------------------|
E |--------------------------|

Verse

(REPEAT 2x)
       D           D/C         D           D/C         D           D/C
E |---------2-----------0-----------2-----------0-----------2-----------0---|
B |----3------3----1------1----2------3----1------1----3------3----1------1-|
G |------2-----------0-----------3-----------0-----------2-----------0------|
D |--0-----------0-----------0-----------0-----------0-----------0----------|
A |-------------------------------------------------------------------------|
E |-------------------------------------------------------------------------|

       G           G
E |---------3-----------3----|
B |----0------0----0------0--|
G |------0-----------0-------|
D |--------------------------|
A |--------------2-----------|
E |--3-----------------------|

Chorus
       A           Bm          D           G
E |---------0-----------2-----------2-----------3----|
B |----2------2----3------3----3------3----0------0--|
G |------2-----------4-----------2-----------0-------|
D |--------------------------0-----------------------|
A |--0-----------2-----------------------------------|
E |--------------------------------------3-----------|

       A           Bm          D           G
E |---------0-----------2-----------2-----------3----|
B |----2------2----3------3----3------3----0------0--|
G |------2-----------4-----------2-----------0-------|
D |--------------------------0-----------------------|
A |--0-----------2-----------------------------------|
E |--------------------------------------3-----------|

       A           A            C   G   D
E |---------0-----------0-----0---3---2--------------|
B |----2------2----2------2---1---0---3--------------|
G |------2-----------2--------0---0---2--------------|
D |---------------------------2---0---0--------------|
A |--0-----------0------------3---2------------------|
E |-------------------------------3------------------|

       D6          D           D6          D           D6          G
E |---------0-----------2-----------0-----------2-----------0----3------3-3-|
B |----3------3----3------3----3------3----2------3----3------3--0------0-0-|
G |------0-----------2-----------0-----------3-----------0-------0------0-0-|
D |--0-----------0-----------0-----------0-----------0-----------0------0-0-|
A |--------------------------------------------------------------2------2-2-|
E |--------------------------------------------------------------3------3-3-|

| /  slide up
| \  slide down
| h  hammer-on
| p  pull-off
| ~  vibrato
| +  harmonic
| x  Mute note
00:00 / 00:00
Otros videos de esta canción
Repetir
Otros videos de esta canción
Composición de Bob Dylan
709 exhibiciones
    • ½ Tono
    • A
    • Bb
    • B
    • C
    • Db
    • D
    • Eb
    • E
    • F
    • F#
    • G
    • Ab
  • Agregar a la lista
    00:00 / 00:00
    OK