Cifra Club

Dont You Think Its Time

Bob Evans

Cifrado: Principal (guitarra y guitarra eléctrica)
Selo Cifra Club: esta cifra foi revisada para atender aos critérios oficiais da nossa Equipe de Qualidade.
tono: G (con acordes en la forma de C) Capotraste en 7ª casa
An insperational song from a great artist.
Should be easy enough to pick up rythm and subtleties by
listening to the song. Any corrections welcome.


Enjoy!

Tabbed by Adam Diggens 10/7/2006
-------------------------------

Standard tuning, Capo 7th Fret

Guide to tab:
Lower-case notes in brackets refer to base notes for chords

Intro (Riff 1 + Riff 2)
_____

Riff 1
______

E-----------------------------------------------|
B----1--1-1-1---1--1-1-1---1--1-1-1---1--1-1-1--|
G----0--0-0-0---0--0-0-0---0--0-0-0---0--0-0-0--|
D----2--2-2-2---0--0-0-0---2--2-2-2---2--2-2-2--|
A--3----------2----------0----------------------|
E-----------------------------------3-----------|

Riff 2
______

E----------------------------------------------------|
B--1--1-1-1--1-1-1 -1-1----1-1------1-1-1-1-1--------|
G--2--2-2-0--0-0-0--0-0----0-0------0-0-0-0-0--------|
D--3--3-3-2--2-2-0--0-0----0-0----0h2-2-2-2-2--------|
A------------------------2------3---------------0-2--|
E------------------------3--------------------3------|

Riff 3
______

E---------------------------|
B-----1-1-1-1------1-1 1-1--|
G-----2-2-2-2------0-0-0-0--|
D--3------3------0h2---2-2--|
A-------------3-------------|
E---------------------------|

Riff 4
______
                             *G
E---------------------------------------------------|
B-----1-1-1-1----1-1 1-1-----1-1-1-1------1-1-1-1---|
G-----2-2-2-2----0-0-0-0-----0-0-0-0------0-0-0-0---|
D--3------3----3-----3-------0-0-0-0------0-0-0-0---|
A---------------------------(2)---------0h2---2-----|
E-------------------------3-----------3-------------|

First Verse
___________

(Riff 1) Don't you think it's time?

Time to (Riff 3) start a new, time for (Riff 3) changing views

Time for (Riff 4) making up your mind

Second verse
____________

Don't you think it's time?

Time for moving on, time for growing strong

Time to leave the past behind


Chorus
______


F           Em          Am  Am7(g)

You've been on my mind


Fmaj7           G* (see above)  C

Oh you've been on my mind


F           Em          Am  Am7(g)

You've been on my mind


(Riff 2) Oh you've been on my mind

Third verse
____________

Don't you think it's time?

Time for quelling fear, time a new year

Time for meaning what you say

Fourth verse
____________

Don't you think it's time?

Time for easing doubts, time for reaching out

Time to open up your eyes

Chorus
______

Repeat Intro (with harmonica)
____________

Fifth verse
____________

Don't you think it's time?

Time for trusting more, without keeping score

Time to let forgiveness out

Sixth verse
____________

Don't you think it's time?

Time for showing grace, time for having faith

Time to make more of this time

Chorus
______

Repeat Intro (with harmonica) x2
____________
00:00 / 00:00
Otros videos de esta canción
Repetir
Otros videos de esta canción
734 exhibiciones
    • ½ Tono
    • A
    • Bb
    • B
    • C
    • Db
    • D
    • Eb
    • E
    • F
    • F#
    • G
    • Ab
  • Agregar a la lista

Afinación de cifrado

Afinador online

    00:00 / 00:00
    OK