Cifra Club

Aprenda

Coming In From The Cold

Bob Marley

Tab de bajo: Principal
    Album - Uprising
    Tabbed by - mattydread
    E-mail - *

     riff 1;
  G|------------------------------------------------------|
  D|-------------------7-5-----------------------7-5------|
  A|---3-3--3-3--3-3---------3----3-3--3-3--3-3--------3--|
  E|------------------------------------------------------|

     riff 2;
  G|-------------------7-5---------------------------------|
  D|---3-3--3-3--3-3---------3----3-3--3-3--3-3----5-7-5---|
  A|-------------------------------------------------------|
  E|-------------------------------------------------------|

     riff 3;
  G|-------------------------------------------------------|
  D|-------------------------------------------------------|
  A|-------------------5-3--------------------------5-7-5--|
  E|---1-1--1-1--1-1---------1----1-1--1-1--1-1------------|

     riff 4;
  G|-------------------------------------------------------|
  D|-------------------7-5-------3-3------5-5--------------|
  A|---3-3--3-3--3-3---------3---------3-------5---3-3-3---|
  E|-------------------------------------------------------|

     riff 5;
  G|-------------------------------------------------------|
  D|---3-------3----------3-3------5-5---------------------|
  A|------0-0-----0-0----------3---------5---3-3-3---------|
  E|-------------------------------------------------------|

     riff 6;
  G|--------------------------------------------------------|
  D|--------------------------------------------------------|
  A|------------------------5--------3----------------------|
  E|---1-1--1----1-1--1-----------------------5-------------|

     riff 7;
  G|---------------------------------------------------------|
  D|-------------------7-5-----------------------7-5---------|
  A|---5-5--5-5--5-5--------5----5-5--5-5--5-5--------5------|
  E|---------------------------------------------------------|

   riff order;  1,2,1,3,1,3,4,5,6,7,1,3,1,3,1,3,5,6,7,1,3,1,3......to fade
Compositor Bob Marley
713 reproducciones

0 comentarios

Mostrar mais comentários

¿Conseguiste tocar?

1 Tocaron 0 Ainda não

Grave um vídeo tocando Coming In From The Cold e mande pra gente!

00:00 / 00:00
outros vídeos desta música
repetir qualidade Automático
Outros vídeos desta música
00:00 / 00:00
Automático
OK