Cifra Club

Do It Twice

Bob Marley

Tab de bajo: Principal
riff versos e refrao

  G|--------5--------------|
  D|-----55------------5---|
  A|---3------------55-----|
  E|--------------3--------| 

ponte

  G|--------5-------------------------------------|
  D|-----55-----------2---------7--------5--------|
  A|---3-----------22--------77-------55----------|
  E|-------------0---------5--------3-------------|    [3x]
Composición de Bob Marley
Colaboración y revisión:
  • Pedro
47 vistas

0 comentarios

Ver todos los comentarios

¿Lograste tocar?

0 Tocaron 0 Aún no

¡Graba un video tocando Do It Twice y envíanoslo!

00:00 / 00:00
Outros vídeos desta música
Repetir Calidad Automático
Outros vídeos desta música
00:00 / 00:00
Automático
OK