Cifra Club

Is This Love

Bob Marley

Cifrado: Principal (guitarra y guitarra eléctrica)
Selo Cifra Club: esta cifra foi revisada para atender aos critérios oficiais da nossa Equipe de Qualidade.
tono: Em
[Intro] Em7  Em  Em7  C  G  F#m7(5-)
        Em7  Em  Em7  G  D/F#  Em

[Tab - Intro]

Parte 1 de 4
   H.n.
E|-7--~-------------------------------------|
B|-7--~-------------------------------------|
G|-7--~-------------------------------------|
D|-7--~-------------------------------------|
A|-7--~-------------------------------------|
E|-7--~---h12\------------------------------|

Parte 2 de 4
   Em7           Em            Em7
E|---x---------------x----------------------|
B|---x-8-------8-----x-8\--------8-8--------|
G|---x-7-------7-0---x-0---------7-7--------|
D|-----5-------5-------9\--------5-5--------|
A|-----7---5h7-7-------7\5---5h7-7-7--------|
E|-0-0---7---------0-0-----7----------------|

Parte 3 de 4
   C              G           F#m7(5-)
E|------0-----------------------------------|
B|---1--1-------1-0-----0-1-0---1-0---------|
G|---0--0-----0-0-0---0-0-0-0---2-0---------|
D|------2---2---2-----0---------------------|
A|-3----3-3---------------------------------|
E|------------------3---------2-------------|

Parte 2 de 4 - Variação
   Em7             Em           Em7
E|---------------------x--------------------|
B|-------8-------8-----x-8\--------8-8------|
G|-------7-------7-0---x-0---------7-7------|
D|-------5-------5-------9\--------5-5------|
A|-------7---5h7-7-------7\5---5h7-7-7------|
E|-0-0-0---7---------0-0-----7--------------|

Parte 4 de 4 - Variação
   G      D/F#   Em
E|---------------0--------------------------|
B|-3-3-3--3-3-3--0--------------------------|
G|-0-0-0--2-2-2--0--------------------------|
D|-0-0-0--0-0-0--2--------------------------|
A|---------------2--------------------------|
E|-3-3-3--2-2-2--0--------------------------|

[Primeira Parte]

[Tab - Primeira Parte]

Parte 1 de 4
  Em7             C              
E|---x--------------------------------------|
B|---x-8-------8-------1-1------1-1---------|
G|---x-7-------7-0-----0-0------0-0---------|
D|-----5-------5-----2-2------2-2-----------|
A|-----7---5h7-7---3--------3---------------|
E|-0-0---7----------------------------------|

Parte 2 de 4
   G      D/F#   
E|------------------------------------------|
B|-3-3-3--3-3-3-3---------------------------|
G|-0-0-0--2-2-2-2---------------------------|
D|-0-0-0--0-0-0-0---------------------------|
A|------------------------------------------|
E|-3-3-3--2---2-----------------------------|

Parte 3 de 4
   Em7           Em            Em7
E|---x---------------x----------------------|
B|---x-8-------8-----x-8\--------8-8--------|
G|---x-7-------7-0---x-0---------7-7--------|
D|-----5-------5-------9\--------5-5--------|
A|-----7---5h7-7-------7\5---5h7-7-7--------|
E|-0-0---7---------0-0-----7----------------|

Parte 4 de 4
   C                G        D/F#
E|------------------------------------------|
B|-----1-1-----1-1------3-3------3-3--------|
G|-----0-0-----0-0------0-0------2-2--------|
D|---2-2-----2-2------0-0------0-0----------|
A|-3-------3--------------------------------|
E|------------------3--------2--------------|

Parte 4 de 4 - Variação Refrão
   C                G        D/F#
E|------------------------------------------|
B|-----1-1-----1-1--3--------3--------------|
G|-----0-0-----0-0--0--------2--------------|
D|---2-2-----2-2----0--------0--------------|
A|-3-------3--------------------------------|
E|------------------3--------2--------------|

         Em7             
I wanna love you
C                G    D/F#      
  And treat you right
         Em7     Em      
I wanna love you
 Em7   C             G   
Every day and every night
       D/F#  Em7   Em  
We'll be  together
 Em7    C                   G    
With a roof right over our heads
        D/F#      Em7   Em  Em7
We'll share the shelter
C             G  
Of my single bed
        D/F#     Em7            Em      Em7
We'll share the same room, oooh-oh-ohhh
     C                  G   D/F# 
But Jah, provides the bread

[Refrão]

[Tab - Refrão]

Parte 1 de 2
   Bm7
E|------------------------------------------|
B|-----3-3-------------3-3------------------|
G|---x-2-2-----------x-2-2-----4\-3---------|
D|---x-0-------------x-0-----x--------------|
A|-2-2---------0-1-2-2-------x-2\-1---------|
E|---------2-2-------------2-2--------------|

Parte 2 de 2
   Am7
E|------------------------------------------|
B|-----1-1-------------1-1------------------|
G|---x-0-0-----------x-0-0------------------|
D|---x-2-------------x-2--------------------|
A|-0-0-------------0-0---------0--1---------|
E|---------0-0-3-0---------0-0--------------|

Parte 1 de 2
   Bm7
E|------------------------------------------|
B|-----3-3-------------3-3------------------|
G|---x-2-2-----------x-2-2-----4\-3---------|
D|---x-0-------------x-0-----x--------------|
A|-2-2---------0-1-2-2-------x-2\-1---------|
E|---------2-2-------------2-2--------------|

Parte 2 de 2
   Am7
E|------------------------------------------|
B|-----1-1-------------1-1------------------|
G|---x-0-0-----------x-0-0------------------|
D|---x-2-------------x-2--------------------|
A|-0-0-------------0-0----------------------|
E|---------0-0-3-0---------0-0-3-0----------|

         Bm7
Is this love, is this love

Is this love
               Am7
Love that I'm feeling?
         Bm7
Is this love, is this love

Is this love
               Am7
Love that I'm feeling?

[Segunda Parte]

[Tab - Segunda Parte]

Parte 1 de 7
   Am7  G/B  C    D
E|-0----3----0----2----5--5-----------------|
B|-1----3----1----3--x-x--x-----------------|
G|-0----0----0----2--x-2--2-----------------|
D|-2----0----2----0--x-x--x-----------------|
A|-0----2----3------------------------------|
E|------------------------------------------|

Parte 2 de 7
   Am7
E|------------------------------------------|
B|-----1-1-------------1-1------------------|
G|---x-0-0-----------x-0-0------------------|
D|---x-2-------------x-2--------------------|
A|-0-0-------------0-0----------------------|
E|---------0-0-3-0---------0-0-3--0---------|

Parte 3 de 7
   Am7  G/B  C    D
E|-0----3----0----2----7--7-----------------|
B|-1----3----1----3--x-x--x-----------------|
G|-0----0----0----2--x-4--4-----------------|
D|-2----0----2----0--x-x--x-----------------|
A|-0----2----3------------------------------|
E|------------------------------------------|

Parte 4 de 7
   Bm7
E|------------------------------------------|
B|-----3-3-------------3-3------------------|
G|---x-2-2-----------x-2-2------------------|
D|---x-0-------------x-0--------------------|
A|-2-2---------0-1-2-2---------0-1----------|
E|---------2-2-------------2-2--------------|

Parte 5 de 7
                    Bm7
E|------------------------------------------|
B|-3/5\3/5\3/5\3/5------3-3-----------------|
G|-2/4\2/4\2/4\2/4----x-2-2----x-4\-3-------|
D|--------------------x-0-------------------|
A|------------------2-2--------x-2\-1-------|
E|---------------------------2-2------------|

Parte 2 de 7
   Am7
E|------------------------------------------|
B|-----1-1-------------1-1------------------|
G|---x-0-0-----------x-0-0------------------|
D|---x-2-------------x-2--------------------|
A|-0-0-------------0-0----------------------|
E|---------0-0-3-0---------0-0-3--0---------|

Parte 6 de 7
   Em
E|------------------------------------------|
B|-0-0-0-0-0-0-0-0-0-0-0-0-0-0-0-0----------|
G|-0-0-0-0-0-0-0-0-0-0-0-0-0-0-0-0----------|
D|-2-2-2-2-2-2-2-2-2-2-2-2-2-2-2-2----------|
A|-2---2---2---2---2---2---2---2------------|
E|-0---0---0---0---0---0---0---0------------|

Parte 7 de 7
   D    C    G/B  Am7
E|-2----0----3----0-------------------------|
B|-3----1----3----1-------------------------|
G|-2----0----0----0-------------------------|
D|-0----2----0----2-------------------------|
A|------3----2----0-------------------------|
E|------------------------------------------|

Parte 7 de 7  (Variação Final)
   D    C    G/B  Am7  h.n.
E|-2----0----3----0----5--------------------|
B|-3----1----3----1----5--------------------|
G|-2----0----0----0----5--------------------|
D|-0----2----0----2----5--------------------|
A|------3----2----0----5--------------------|
E|------------------------h12/--------------|

( Am7  G/B  C  D )

Am7
    I wanna know, wanna know

Wanna know now

( Am7  G/B  C  D )

Bm7 
    I got to know, got to know

Got to know now
                Am7
I'm willing and able
   Em                        
So I throw my cards
         D    C  G/B  Am7
On your table

[Primeira Parte]

         Em7             
I wanna love you 
C                G    D/F#     
  And treat you right
         Em7     Em     
I wanna love you
  Em7  C             G   
Every day and every night
       D/F#  Em7   Em  
We'll be  together
 Em7    C                   G    
With a roof right over our heads
        D/F#      Em7   Em  Em7
We'll share the shelter
C             G  
Of my single bed
        D/F#     Em7            Em      Em7
We'll share the same room, oooh-oh-ohhh
     C                  G   D/F# 
But Jah, provides the bread

[Refrão]

         Bm7
Is this love, is this love

Is this love
               Am7
Love that I'm feeling?
         Bm7
Is this love, is this love

Is this love
               Am7
Love that I'm feeling?

[Segunda Parte]

( Am7  G/B  C  D )

Am7
    Oh yes, I know, yes I know

Yes I know now

( Am7  G/B  C  D )

Bm7 
Oh yes, I know, yes I know

Yes I know now
                Am7
I'm willing and able
   Em                        
So I throw my cards
         D    C  G/B  Am7
On your table

[Final] Em7  Em  Em7  C  G  F#m7(5-)
        Em7  Em  Em7  G  D/F#  Em7(9)

[Tab - Final]

   G      D/F#         Em7(9)
E|---------------------2--~-----------------|
B|-3-3-3--3-3-3--------3--~-----------------|
G|-0-0-0--2-2-2--------4--~-----------------|
D|-0-0-0--0-0-0--------5--~-----------------|
A|------------------------------------------|
E|-3-3-3--2-2-2--0-0-0-0--~-----------------|
Otros videos de esta canción
    172.195 exhibiciones
    • Simplificar cifrado
      • ½ Tono
      • Am
      • Bbm
      • Bm
      • Cm
      • C#m
      • Dm
      • Ebm
      • Em
      • Fm
      • F#m
      • Gm
      • G#m
    • Agregar a la lista

    Afinação da cifra

    Afinador online

      Capítulos
      • Tocando a Música
      • Acordes da Introdução
      • Tocando Introdução
      • Ensinando Introdução
      • Tocando Primeira Parte
      • Ensinando Primeira Parte
      • Acordes Refrão
      • Tocando Refrão
      • Ensinando Refrão
      • Acordes Segunda Parte
      • Tocando Segunda Parte
      • Ensinando Segunda Parte
      • Encerramento
      Ops (: Contenido disponible solo en portugués.
      OK