Is This Love

Bob Marley

Composição de: Bob Marley
tono: A
[Intro]

Parte 1 de 2
E|---------------------------|
B|---------------------------|
G|-----------2---------------|
D|--4---2-4-----4---2-4------|
A|----4-----------4----------|
E|---------------------------|

E|---------------------------|
B|--------2-----3p2----3p2---|
G|------2----2------2------2-|
D|--0h4----------------------|
A|---------------------------|
E|---------------------------|

Parte 2 de 2
E|---------------------------|
B|---------------------------|
G|-----------2---------------|
D|--4---2-4-----4---2-4------|
A|----4-----------4----------|
E|---------------------------|

E|---------------------------|
B|---------------------------|
G|------2---6-6-6-4-6-4-6----|
D|--0-4-----7-7-7-5-7-5-7----|
A|---------------------------|
E|---------------------------|

[Refrão]

        F#m
I wanna love you
     D             A
And treat you right
        F#m
I wanna love you
      D        A
Every day and every night
     F#m
We'll be together
       D                   A
With a roof right over our heads.
      F#m
We'll share the shelter
 D           A
Of my single bed
        F#m
We'll share the same room
  D             A
Jah provide the bread

[Pré-Refrão]

         C#m
Is this love, is this love, is this love
                       Bm
Is this love that I'm feeling?
         C#m
Is this love, is this love, is this love
                       Bm        Bm  C#m  D  E 
Is this love that I'm feeling?

E|----------12-b18--------|
B|-12-14-15---------------|
G|------------------------|
         Bm                              Bm  C#m  D  E 
I wanna know, wanna know, wanna know now

E|----------12-b18--------|
B|-12-14-15---------------|
G|------------------------|
           C#m
I've got to know, got to know, got to know now
C#m                    Bm
I...  I'm willing and able
    F#m                      E    D  C#m  Bm
So I throw my cards on your table

[Refrão]

        F#m
I wanna love you
        D                A           F#m
I wanna love and treat, love and treat you right
F#m
I wanna love you
       D             A
Every day and every night
       F#m
We'll be together
        D                   A
With a roof right over our heads
           F#m
We'll share the shelter
D            A
Of my single bed

           F#m
We'll share the same room
D                 A
Jah provide the bread

[Pré-Refrão]

         C#m
Is this love, is this love, is this love
                      Bm
Is this love that I'm feeling?
         C#m
Is this love, is this love, is this love
                      Bm
Is this love that I'm feeling?

( Bm  C#m  D  E )

[Interlúdio]

         Bm                           Bm  C#m  D  E 
Oh yes I know, yes I know, yes I know now

         C#m
Oh yes I know, yes I know, yes I know now
C#m                   Bm
I...  I'm willing and able
   F#m                    E     D C#m Bm
So I throw my cards on your table

[Refrão]

            F#m
See I wanna love ya
         D                  A           F#m
I wanna love and treat ya, love and treat ya right
F#m
I wanna love you
      D              A
Every day and every night
           F#m
We'll be together
        D                   A
With a roof right over our heads
                F#m
We'll share the shelter
D            A
Of my single bed
                  F#m
We'll share the same room
 D               A
Jah provide the bread
                   F#m
We'll share the shelter
D             A
Of my single bed
Página 1 / 1

Letras y titulo
Acordes y artista

restablecer los ajustes
OK