Cifra Club

Aprenda

Is This Love

Bob Marley

Tab de bajo: Principal
G|----------2---------------------------6-----7-6---7-6-----|
D|----2-4-----4---2-4-----------4-7-----7------7-----7----|
A|--4------------4-------------5------------------------------|
E|--------------------------------------------------------------

G|----------2----------------------------------------------|
D|----2-4-----4---2-4-----------4-7--------------------|
A|--4------------4-------------5--------------------------|
E|---------------------------------------5-5-5-4-5-4----|

G|------------------------------------------|
D|--------------------4----------------------|
A|--------------5-----------------------------|
E|--2--------------------5--5-5-4-5-4-----|

G|--------------2-------------------------------------------|
D|--------2-4-----4---2-4------------4-------------------|
A|------4------------4-------5-5-5-5---------------------|
E|--2--------------------------------------5--5-5-4-5-4--|

G|--------------2----------------------------------------------|
D|--------2-4-----4---2-4------------4----------------------|
A|------4------------4-------5-5-5-5---------------0-2-3--|
E|--2--------------------------------------5--5-5-5----------|


G|---------------|--------------|---------------|---------------|
D|------6--------|--------------|------4-------|---------------|  2x
A|4--4----4--4-|--4--4----0-|2--2----2--2-|--2--2--2--0-|
E|-----------4---|--------4----|-----------2---|---------------|


G|-------------------------2-----------------6-6--------------6-6--|
D|-----------------2-----------4--------4-7--------------4-7-------|
A|2-----4-----5--------------------5-5--------------5-5-----------|
E|--------------------------------------------------------------------|

G|-------------------------/7---6----------7-6-----7--6-7-6--|
D|-----------------2---------------------------------------------|
A|2-----4-----5-------------------------------------------------|
E|----------------------------------------------------------------|

G|---------------|--------------|---------------|---------------|-------------------------------------------------|
D|------6--------|--------------|------4-------|---------------|--------------------4--4-0-2-------------------| 
A|4--4----4--4-|--4--4----0-|2--2----2--2-|--2--2----2--|-------------4--4----------------5----4----2--|
E|-----------4---|--------4----|-----------2---|--------2-----|2--2-2--2--------------------------------------|


G|-----------------------------------------------|
D|-------------------------4-7------------------|
A|-------------------5---5----------------------|
E|--2-2-2-5-5-2-------------5--5-5-4-5-4--|

G|--------------2-------------------------------------------|
D|--------2-4-----4---2-4------------4-------------------|
A|------4------------4-------5-5-5-5---------------------|
E|--2--------------------------------------5--5-5-4-5-4--|


G|--------------2----------------------------------------------|
D|--------2-4-----4---2-4------------4----------------------|
A|------4------------4-------5-5-5-5---------------0-2-3--|
E|--2--------------------------------------5--5-5-5----------|


G|--------------2----------------------------------------------|
D|--------2-4-----4---2-4------------4----------------------|
A|------4------------4-------5-5-5-5---------------0-2-3--|
E|--2--------------------------------------5--5-5-5----------|


G|-------------------------2-----------------6-6--------------6-6--|
D|-----------------2-----------4--------4-7--------------4-7-------|
A|2-----4-----5--------------------5-5--------------5-5-----------|
E|--------------------------------------------------------------------|


G|-------------------------/7---6----------7-6-----7--6-7-6--|
D|-----------------2---------------------------------------------|
A|2-----4-----5-------------------------------------------------|
E|----------------------------------------------------------------|


G|---------------|--------------|---------------|---------------|-------------------------------------------------|
D|------6--------|--------------|------4-------|---------------|--------------------4--4-0-2-------------------| 
A|4--4----4--4-|--4--4----0-|2--2----2--2-|--2--2----2--|-------------4--4----------------5----4----2--|
E|-----------4---|--------4----|-----------2---|--------2-----|2--2-2--2--------------------------------------|


G|-----------------------------------------------|
D|-------------------------4-7------------------|
A|-------------------5---5----------------------|
E|--2-2-2-5-5-2-------------5--5-5-4-5-4--|


G|--------------2-------------------------------------------|
D|--------2-4-----4---2-4------------4-------------------|
A|------4------------4-------5-5-5-5---------------------|
E|--2--------------------------------------5--5-5-4-5-4--|
Composição de Bob Marley
Colaboración y revision:
  • joao contrabaixista
  • Nereu Bordejaco
819 reproducciones

0 comentarios

Ver todos os comentários

¿Conseguiste tocar?

5 Tocaram 1 Ainda não

Grave um vídeo tocando Is This Love e nos envie!

00:00 / 00:00
outros vídeos desta música
repetir qualidade Automático
Outros vídeos desta música
00:00 / 00:00
Automático
OK