Cifra Club

Pimpers Paradise

Bob Marley

Cifrado: Versão 2 (guitarra y guitarra eléctrica)
Selo Cifra Club: esta cifra foi revisada para atender aos critérios oficiais da nossa Equipe de Qualidade.
tono: C
Intro: Lead
E|-------12---------------12-----------------------------|
B|----------13---10---13-------13---10---13--------------|
G|-------9----------------9-------------------12--12--12-|
D|----------10---7----10-------10---7----10--------------|
A|--------------------------------------------10--10--10-|
E|-------------------------------------------------------|

Intro: Bass [Played along with lead]
E|--------------------------------|
B|--------------------------------|
G|--------------------------------|
D|--------------------------------|
A|-7-3---3---7---3-----3----------|
E|-----5------------5-----3--3--3-|

Chords
  F          G       C      Am
E|-12---| ----10---  --8--  --7---|
B|-13---| ----12---  --10-  --8---|
G|-14---| ----12---  --10-  --9---|
D|-14---| ----12---  --10-  --9---|
A|-12---| ----10---  --8--  --7---|
E|-12---| ----10---  --8-- `--7---|

Verses [F, G throughout than C, Am come in at the end as shown below]

F                   G
She left the party, have a good time

Bass: Played along with chords F and G
E|--------------------------------------|
B|--------------------------------------|
G|--------------------------------------|
D|--------------------------------------|
A|--3-2---3-3-2----------------5--------|
E|-1---1--------1----3-3--5--7----3-3-3-|

C                             Am
She be laughing when there ain’t no joke

Bass: Played along with chords C and Am
E|-------------------------------------|
B|-------------------------------------|
G|-------------------------------------|
D|-------------------------------------|
A|--3-2---3-3-2-----7-7--7----7-7-7----|
E|-1---1--------1---------7-7----------|

Chorus
   F                               G
A pimpers paradise, that’s all she was now

Bass: Played along with chords F and G
E|--------------------------------------|
B|--------------------------------------|
G|--------------------------------------|
D|--------------------------------------|
A|--3-2---3-3-2----------------5--------|
E|-1---1--------1----3-3--5--7----3-3-3-|

   C                               Am
A pimpers paradise, that’s all she was

Bass: Played along with chords C and Am
E|-------------------------------------|
B|-------------------------------------|
G|-------------------------------------|
D|-------------------------------------|
A|--3-2---3-3-2-----7-7--7----7-7-7----|
E|-1---1--------1---------7-7----------|

Bridge:
        F          G       Am   C
Every need got an ego to feed

Bass: Played along with the above progression [F G Am C]
E|----------------------------------|
B|----------------------------------|
G|----------------------------------|
D|----------------------------------|
A|-3-3--3----------------3-7-8-8--8-|
E|---------3-3--3--5-5--5-----------|
Otros videos de esta canción
    14 exhibiciones
      • ½ Tono
      • A
      • Bb
      • B
      • C
      • Db
      • D
      • Eb
      • E
      • F
      • F#
      • G
      • Ab
    • Agregar a la lista

    Afinação da cifra

    Afinador online

      Ops (: Contenido disponible solo en portugués.
      OK