Cifra Club

Redemption Song

Bob Marley

Chords: Principal (acoustic and electric guitars)
tone: G
[Intro]

E|---------------------------------------------------|
B|---------------------------------------------------|
G|---------------------------------------------------|
D|-------------------0h2-0---------------------------|
A|-----0-0h2-----2h3-------0h2-----------------------|
E|-2h3-------2h3-------------------------------------|

E|---------------------------------------------------|
B|---------------------------------------------------|
G|---------------------------------------------------|
D|-----------0---------------------------------------|
A|-----0-0h2---2-3-2-0-------------------------------|
E|-2h3-----------------3-----------------------------|

E|---------------------------------------------------|
B|---------------------------------------------------|
G|---------------------------------------------------|
D|-------------------0h2-0---------------------------|
A|-----0-0h2-----2h3-------0h2-----------------------|
E|-2h3-------2h3-------------------------------------|

                       G
E|-----------------------3---------------------------|
B|----------------5-3-1--3---------------------------|
G|-----------------------0---------------------------|
D|-----------0-----------0---------------------------|
A|-----0-0h2---2--3-2-0--2---------------------------|
E|-2h3-------------------3---------------------------|

     G                     Em
Old Pirates, yes, they rob I
 C             G/B        Am
Sold I to the merchant ships
G                        Em  
 Minutes after they took I
C          G/B          Am
 From the bottom less pit
        G        Em
But my hand was made strong
C        G/B            Am
 By the hand of the Almighty
    G                  Em     C    G/B     D
We forward in this generation   triumphantly

                   G   C        D         G
Won't you help to sing   these songs of freedom?
       C     D      Em  C
'Cause all I ever have
   D        G    C
Redemption songs
   D        G    C  D
Redemption songs

       G                            Em
Emancipate yourselves from mental slavery
             C          G/B       Am
None but ourselves can free our minds
         G              Em
Have no fear for atomic energy
                C        G/B      D
Cause none of them can stop the time
     G                         Em
How long shall they kill our prophets
           C     G/B       Am
While we stand aside and look?
           G               Em
Yes, some say it's just a part of it
       C         G/B       D
We've got to fulfill the book

                   G    C        D         G
Won't you help to sing    these songs of freedom?
       C     D        Em    C
'Cause all I ever have
   D        G     C
Redemption songs
   D        G     C
Redemption songs
   D        G     
Redemption songs

( C  D  Em )
( C  D  Em )
( C  D  Em )
( C  D  Em  C  D )

       G                            Em
Emancipate yourselves from mental slavery
             C           G/B       Am
None but ourselves can free our minds
         G              Em
Have no fear for atomic energy
                 C        G/B     D
'Cause none of them can stop the time
     G                         Em
How long shall they kill our prophets
           C     G/B       Am
While we stand aside and look?
           G               Em
Yes, some say it's just a part of it
       C         G/B       D
We've got to fulfill the book

                   G    C        D         G
Won't you help to sing    these songs of freedom?
       C     D      Em    C
'Cause all I ever have
   D        G     
Redemption songs
C     D        Em  C 
All I ever have
   D        Em   C
Redemption songs
     D         G     C
The songs of freedom
     D         G
The songs of freedom

[Final] C  G/B  Am  Am6
00:00 / 00:00
Other videos of this song
Repeat
Other videos of this song
Composed by Bob Marley
249.757 views
  • Simplify chords
    • ½ Tone
    • A
    • Bb
    • B
    • C
    • Db
    • D
    • Eb
    • E
    • F
    • F#
    • G
    • Ab
  • Add to list
    00:00 / 00:00
    Chapters
    • Início
    • Tocando introdução (solo)
    • Ensinando solo da intro (parte 1)
    • Ensinando solo da intro (parte 2)
    • Ensinando solo da intro (parte 3)
    • Acordes da primeira parte
    • Tocando primeira parte
    • Ensinando o ritmo da primeira parte
    • Acordes do refrão
    • Tocando refrão
    • Ensinando o ritmo do refrão
    • Tocando trecho da música
    • Encerramento
    OK