Cifra Club

Aprenda

Zion Train

Bob Marley

Tab de bajo: Principal
INTRO
G ||------------------------------------------||
D ||7----------5-5------7---------------------||
A ||--7---5---------3-----7---5-----888-7-8---||
E ||-------5---------3---------5--------------||

G ||------------------------------------------||
D ||-7--------------5-5-----------------------||
A ||---7---5-------------3---7----7----7----7-||
E ||--------5-------------3-------------------||


	CHORUS
G ||------------------------------------------||
D ||--7-5---------7---------------------------||
A ||------7-5---------------------------5-7-8-||
E ||----------7-5-----O-33-5----O-3-5---------||


	VERSE
G ||------------------------------------------||
D ||-77----------5-5-----77-------------------||
A ||----7-5----------3-------7-5------888-7-8-||
E ||--------5----------3---------5------------||


		BRIDGE			x4
G ||--------------------------7-5----|---7-5--||
D ||------------------------------5--|-------5||
A ||3-3---5-3----3-5-3-----3---------|3-3-----||
E ||-----------3--------3------------|--------|

_______________________________________________________
Contribuição: Andre Marques(andre_pipoca@bol.com.br)
Compositor Bob Marley
92 reproducciones

0 comentarios

Mostrar mais comentários

¿Conseguiste tocar?

1 Tocaron 0 Ainda não

Grave um vídeo tocando Zion Train e mande pra gente!

00:00 / 00:00
outros vídeos desta música
repetir qualidade Automático
Outros vídeos desta música
00:00 / 00:00
Automático
OK