Cifra Club

Aprenda

Jingle Bell Rock

Bobby Helms

Tablatura: Principal (guitarra)
tono: G
1--14-14-14---14-14-14---14-17--------------------------------------|
2--15-15-15---14-14-14---15----15-17-17(b)17-15---------------------|
3-----------------------------------------------16-14---------------|
4-------------------------------------------------------------------|
5-------------------------------------------------------------------|
6---------------------------------------------------------5-3--2-1--|

1--------------------------------------------------------------|
2--15-15-15--14-14-14--12-14-12----12-14-12-------12-14-12-----|
3-------------------------------11----------11-14----------12--|
4--------------------------------------------------------------|
5--------------------------------------------------------------|
6--------------------------------------------------------------|

1--------------------------------------------------------------|
2--------------------------------12-12-14------15--------------|
3--9-11--11-12-14---9-11-12-14-------------14------------------|
4--------------------------------------------------------------|
5--------------------------------------------------------------|
6--------------------------------------------------------------|

1--------------------------------------------------------------|
2--14-15-17--15--12-15--17--15--15-15-14-12--------------------|
3-------------------------------------------14-11--------------|
4--------------------------------------------------------------|
5--------------------------------------------------------------|
6--------------------------------------------------------------|

Composição de Jim Boothe / Joe Beal
Colaboración y revision:
  • Élison Duarte
1.217 reproducciones
  • Simplificar cifra
    • ½ Tono
    • A
    • Bb
    • B
    • C
    • Db
    • D
    • Eb
    • E
    • F
    • F#
    • G
    • Ab
  • Adicionar à lista

    0 comentarios

    Ver todos os comentários

    ¿Conseguiste tocar?

    3 Tocaram 3 Ainda não

    Grave um vídeo tocando Jingle Bell Rock e nos envie!

    00:00 / 00:00
    outros vídeos desta música
    repetir qualidade Automático
    Outros vídeos desta música
    00:00 / 00:00
    Automático
    OK