Cifra Club

Jingle Bell Rock

Bobby Helms

Chords: Principal (acoustic and electric guitars)
tone: D
[Intro] D  D7M

[Tab - Solo Intro]

Parte 1 de 2
E|--------14-14-14---------14-14-14---------|
B|--------15-15-15---------14-14-14---------|
G|------------------------------------------|
D|------------------------------------------|
A|------------------------------------------|
E|------------------------------------------|

Parte 2 de 2
E|-14-17-10-12-12b-12-10--------------------|
B|-15-15-10-12-12b-12-10--12-10-------------|
G|------------------------12-11-------------|
D|------------------------------------------|
A|-------------------------------5-3--2--0--|

[Refrão]

 D            D/F#   D/A   D           D/F#  D/A
Jingle bell, jingle bell, jingle bell rock
 D             B7/F#    Em7          A9
Jingle bells swing and jingle bells ring
  Em7         A7        Em7        A9
Snowin' and blowin' up bushels of fun
Em7          Em7/B      A7  A7/G A7/F#  A7/E
    Now the jingle hop has be___gun

 D            D/F#   D/A   D           D/F#  D/A
Jingle bell, jingle bell, jingle bell rock
 D             B7/F#   Em7         A9
Jingle bells chime in jingle bell time
 Em7          A7         Em7           A9
Dancin' and prancin' in Jingle Bell Square
Em7          A7   D   D/E  D/F#   
    In the frosty air

[Primeira Parte]

[Tab - Acordes]

Parte 1 de 4 
    G      G/B   G#°    G/B
E|------------------------------------------|
B|-----3------3-----3------3----------------|
G|-----0------0-----4------0----------------|
D|-----0------0-----3------0----------------|
A|---------2------------2-------------------|
E|--3----3-------4----4---------------------|

Parte 2 de 4
    D     D/F#  D/A   D      D/F# D/A
E|-----2-----2----2-----2------2----2-------|
B|-----3-----3----3-----3------3----3-------|
G|-----2-----2----2-----2------2----2-------|
D|--0----0------------0----0----------------|
A|--------------0-----------------0---------|
E|---------2-----------------2--------------|

Parte 3 de 4
    G#°         G/B  G#°         G/B  A7
E|------------------------------------------|
B|-----3-----3----3-----3-----3----3--2-----|
G|-----4-----4----0-----4-----4----0--0-----|
D|-----3-----3----0-----3-----3----0--2-----|
A|--------------2----------------2----0-----|
E|--4----3-4---------4----3-4---------------|

Parte 4 de 4
E|------------------------------------------|
B|------------------------------------------|
G|------------------------------------------|
D|------------------------------------------|
A|------------------------------------------|
E|--5-3--2--0-------------------------------|

         G     G/B            G#°   G/B
What a bright time, it's the right time
    D        D/F# D/A D  D/F#  D/A
To rock the night a__way
        G#°      G/B    G#°      G/B  A7
Jingle bell time is a swell time

To go glidin' in a one-horse sleigh

[Segunda Parte]

 D            D/F#  D/A D            D/F#  D/A
Giddy-up jingle horse, pick up your feet
 D       B7/F#  B7/A  B7
Jingle around the   clock
 G                       Gm        
Mix and a-mingle in the jinglin' feet
Em7             A7          D
    That's the jingle bell rock

[Refrão]

 D            D/F#   D/A   D           D/F#  D/A
Jingle bell, jingle bell, jingle bell rock
 D             B7/F#   Em7         A9
Jingle bells chime in jingle bell time
 Em7          A7         Em7           A9
Dancin' and prancin' in Jingle Bell Square
Em7          A7   D  D/E  D/F#  
    In the frosty air

[Primeira Parte]

         G     G/B            G#°   G/B
What a bright time, it's the right time
    D        D/F# D/A D  D/F#  D/A
To rock the night a__way
        G#°      G/B    G#°      G/B  A7
Jingle bell time is a swell time

To go glidin' in a one-horse sleigh

[Segunda Parte]

 D            D/F#  D/A D            D/F#  D/A
Giddy-up jingle horse, pick up your feet
 D       B7/F#  B7/A  B7
Jingle around the   clock
 G                       Gm        
Mix and a-mingle in the jinglin' feet

[Final]

Em7             A7        
    That's the jingle bell
Em7             A7         
    That's the jingle bell
Em7             A7          D
    That's the jingle bell rock
00:00 / 00:00
Other videos of this song
Repeat
Other videos of this song
4.542 views
  • Simplify chords
    • ½ Tone
    • A
    • Bb
    • B
    • C
    • Db
    • D
    • Eb
    • E
    • F
    • F#
    • G
    • Ab
  • Add to list

Afinação da cifra

Afinador online

    00:00 / 00:00
    OK