Cifra Club

In Trow Texas Ride Song

Bodeans

Cifrado: Principal (guitarra y guitarra eléctrica)
Selo Cifra Club: esta cifra foi revisada para atender aos critérios oficiais da nossa Equipe de Qualidade.
tono: C
INTRO 1
This part of the song is only in Go Slow Down NOT Joe Dirt Car. These are alot easier then they look:

Riff One (2x):
E|-3-5-7--7-7-7-7-5--5-5-----3-5-7-7-7-8-7-5--5-5----| I
B|---------------------------------------------------| I
G|---------------------------------------------------| I
D|---------------------------------------------------| I
A|---------------------------------------------------| I
E|---------------------------------------------------| I

E|-3-5-7--7-7-7-7-5--5-7-5-3--5-7-5-3---| I
B|--------------------------------------| I
G|--------------------------------------| I
D|--------------------------------------| I
A|--------------------------------------| I
E|--------------------------------------| I

Riff Two:
E|------15-15-15-15--15-19-20-19-19-19-19-19--20-20-20-19-19-19-17-15-| I
B|--------------------------------------------------------------------| I
G|--------------------------------------------------------------------| I
D|-2-0----------------------------------------------------------------| I
A|--------------------------------------------------------------------| I
E|--------------------------------------------------------------------| I

E|-15-15-15-15--15-15-15-15--19--20--19-19-19-19-19-20-20-20--19-17-15-| I
B|---------------------------------------------------------------------| I
G|---------------------------------------------------------------------| I
D|---------------------------------------------------------------------| I
A|---------------------------------------------------------------------| I
E|---------------------------------------------------------------------| I

Repeat Riff One 1x

INTRO 2

4x
E|---3-2-3----------3-2-0-------| I
B|---------3--------------3-----| I
G|-0--------------0-------------| I
D|------------------------------| I
A|------------------------------| I
E|------------------------------| I

MAIN RIFF:

 2x
E|-7-7-7-7-7--8--9--8--7---------7-7-7-7-7--5--7--5--3--0----| I
B|--------------------------------------------------------3--| I
G|-----------------------------------------------------------| I
D|-----------------------------------------------------------| I
A|-----------------------------------------------------------| I
E|-----------------------------------------------------------| I

In the Go Slow Down version of this song is mostly bass and drum, however I
found out one guitar part that they play randomly throughout the singing.
Just listen to the song and figure out when to play this:

E|----------| I
B|----------| I
G|----------| I
D|-0-0-3-0--| I
A|----------| I
E|----------| I
Alright thats about it! Just listen to the song and practice. Enjoy!
Otros videos de esta canción
    • ½ Tono
    • A
    • Bb
    • B
    • C
    • Db
    • D
    • Eb
    • E
    • F
    • F#
    • G
    • Ab
  • Agregar a la lista

Afinación de cifrado

Afinador online

    OK