Cifra Club

Ela Mexe Comigo

Bokaloka

Cifrado: Principal (guitarra y guitarra eléctrica)
tono: D
[Intro]

    A7M                  A
E|--2--2--4--2---0--0--|---2--2---|
B|---------------------|----------|
G|---------------------|----------|
D|---------------------|----------|

    A7M                 A6
E|--7--7--6------6-----|----------|
B|-----------7------5--|----------|
G|---------------------|----------|
D|---------------------|----------|

    A7M                  A
E|--2--2--4--2---0--0--|---2--2---|
B|---------------------|----------|
G|---------------------|----------|
D|---------------------|----------|

    A7M                 A6
E|--7--7--6------6-----|----------2--|
B|-----------7------5--|----2--2-----|
G|---------------------|-------------|
D|---------------------|-------------|

   Bm   E7(4/9)
E|--4--|-----|
B|-----|-----|
G|-----|-----|
D|-----|--2--|

[Refrão]

A7M           A6  F#m
 Ela mexe comigo, e o pior que não sabe
Bm                     Bm7    G#m7(5-)        C#7
 Comentei com os meus amigos, minha outra metade
F#m        F#m7M               F#m7
Ela ah! eu morro de amores por ela
     F#m6            Bm           C#m  
Tô a ponto de lagar aquela,que há tempos me
      
Acompanhou
                       Bm      E7(4/9)   A  
Mas o meu sentimento mudou, eu não pude
E7(4/9)
Conter

(Em  D )

[Primeira Parte]

D                      E7(4/9)                       
E agora o que é que eu faço?  meu caminho ta sem
C#m7(5-)
Traço
                          F#7
Quantas vezes eu me perguntei, como é que eu vou fazer?
Bm7                C#m   D7M               E7(4/9)
Se esse poço é venenoso, se é certo ou duvidoso
            A    E   Em7    F#7
Nem quero saber, nem quero saber

[Segunda Parte]

Bm7                                  E7(4/9)
Olha,eu tô meio sem jeito,mas eu tô aqui, preciso te falar
                      C#m       F#7
 Eu não sei se é direito mas eu não pedi pra me apaixonar
Bm7                C#m  Dm                E7(4/9)
Olha,eu te peço perdão, mas quem manda na gente é o coração
     A   E  Em  F#7
É o amor
00:00 / 00:00
Otros videos de esta canción
Repetir
Otros videos de esta canción
Composición de Boka Loka
1.722 vistas
    • ½ Tono
    • A
    • Bb
    • B
    • C
    • Db
    • D
    • Eb
    • E
    • F
    • F#
    • G
    • Ab
  • Agregar a la lista

    0 comentarios

    Ver todos los comentarios

    ¿Lograste tocar?

    5 Tocaron 11 Aún no

    ¡Graba un video tocando Ela Mexe Comigo y envíanoslo!

    00:00 / 00:00
    OK