Cifra Club

Peace Sign

Boku no Hero

Cifrado: Principal (guitarra y guitarra eléctrica)
tono: A
G#      A#   G   Cm       D#
Ohohohohoh ohohohohoh ohohoh
     
    G#  Bm  Cm        D#    G        Cm
E|--------6---3-----------3h4-3-------------3|
B|----3-4---6-------3-4--6-------6-4h6-6-6---|
G|--5-----------5-5--------------------------|
D|-------------------------------------------|
A|-------------------------------------------|
E|-------------------------------------------|

    G#  Bm  Cm        D#    G        Cm
E|--------6---3-----------3h4-3--------------|
B|----3-4---6-------3-4--6-------6-4h6--4----|
G|--5-----------5-5--------------------------|
D|-------------------------------------------|
A|-------------------------------------------|
E|-------------------------------------------|

       Cm                Fm 
Itsuka bukura no ue wo suresure ni 
    Bb             Cm
Toorisuiteitta ano hikouki wo 
        Cm            Fm
Fushigi na kurai ni oboeteru 
       Bb             Cm
Imi mo nai no ni naze ka 

     Cm              Fm
Fugainakute naita hi no yoru ni 
        Bb               Cm
Tada tsuyokunaritai to negatteta 
        Cm              Fm
Sono tame ni hitsuyo na yuuki wo  
       Bm      Cm
Sagashimotometeita 

    Fm                  Cm
Zankoku na unmei ga sadamatteru to shite 
          G#                          Bb
Sore ga itsu no hi ka boku no mae ni arawareru to shite 
     Fm                     Cm
Tada isshun kono isshun iki ga dekiru nara 
         Fm      Gm     G#    Bb
Dou demo ii to omoeta sono kokoro wo 

           G#           Bb 
Mou ichido tooku he ike tooku he ike to 
Cm              D#
Boku no naka de dare ka ga utau 
G#            G                   Cm  D#
Dou shiyou mo nai hodo netsuretsu ni 
          G#              Bb
Itsudatte me wo harashita kimi ga nido to 
Cm           D#
Kanashimanai you ni waraeru 
G#           G                Cm  D#
Sonna hiiroo ni naru tame no uta 
  
    G#    Bb    G       Cm
Saraba kakagero piisu sain 
    B      C#       D#
Korogatte iku sutoorii wo  

    G#  Bb  Cm        D#    G        Cm
E|--------6---3-----------3h4-3-------------3|
B|----3-4---6-------3-4--6-------6-4h6-6-6---|
G|--5-----------5-5--------------------------|
D|-------------------------------------------|
A|-------------------------------------------|
E|-------------------------------------------|

    G#  Bb  Cm        D#    G        Cm
E|--------6---3-----------3h4-3--------------|
B|----3-4---6-------3-4--6-------6-4h6--4----|
G|--5-----------5-5--------------------------|
D|-------------------------------------------|
A|-------------------------------------------|
E|-------------------------------------------|
00:00 / 00:00
Otros videos de esta canción
Repetir
Otros videos de esta canción
Composición de Kenshi Yonezu
Colaboración y revisión:
  • Louis Rodrigo
  • João Sousa
  • Francisco Chico
5.275 vistas
    • ½ Tono
    • A
    • Bb
    • B
    • C
    • Db
    • D
    • Eb
    • E
    • F
    • F#
    • G
    • Ab
  • Agregar a la lista

    0 comentarios

    Ver todos los comentarios

    ¿Lograste tocar?

    7 Tocaron 13 Aún no

    ¡Graba un video tocando Peace Sign y envíanoslo!

    00:00 / 00:00
    OK