Cifra Club

Star Marker

Boku no Hero

Cifrado: Principal (guitarra y guitarra eléctrica)
tono: E
[Intro]

    A           B         E         C#m   
E|-----------------------------------------|
B|--12--12/14--12-10--9----9--9/10--9-7-5--|
G|-----------------------------------------|
D|---9---9/11---9--7--6----6--6/7---6-4-2--|
A|-----------------------------------------|
E|-----------------------------------------|

     A        B       E
E|-----------------------------------------|
B|--5/7--7/9--9/10----5--5--5--------------|
G|-----------------------------------------|
D|--2/4--4/6--6/7-----2--2--2--------------|
A|-----------------------------------------|
E|-----------------------------------------|

[Primeira Parte]

E                  A 
Atarimae ga terasu mabushisa ni
B                C#m  
Mabuta wo tojita kimi no koto
A                    E  
Dare no me ni mo furenai kage ni
A                B
Hitotsubu no hikari wo soko ni

E                     A
Mayoi tomadoi yume no mabataki ni
B     G#7        C#m   
Nagareboshi ga hoho wo tsutattemo
A              E  
Nuguisatte kureru kurai no
A               B
Hito nari no neiro wo kimi ni

[Ponte]
C#m7    G#7         B            F#  
Kaerarenai kako ni iro wo nutte iku
      A      
Kitto mirai nanairo katate ni paretto
  B5                 
Waratte misete yo

E|-16--12--14------------------------------|
B|-----------------------------------------|
G|-----------------------------------------|
D|-----------------------------------------|
A|-----------------------------------------|
E|-----------------------------------------|

[Refrão]

A         B          E           C#m
Tatta hitotsu dake negatterun da itsudatte
A         B         E    
Saitei na yoru wo nukete
     A         B              C#m
Michigai kanchigai machigai janakutte
  A              B      Bsus4 
Kokoro kara waraeru you ni

A         B          E           C#m
Tatta ichido dake isshun no kirameki dake
A       B        E    
Sonna yawa na inori janai
      A            B               C#m
Danchigai ni shinjitai tobikoete mou ikkai
  A       B          E
Sebandeku kimi no shikai wo
  A         B      E        
Bokura no sekai wo hiroku
00:00 / 00:00
Otros videos de esta canción
Repetir
Otros videos de esta canción
Composición de KANA-BOON
Colaboración y revisión:
  • Tiago Rivero
171 vistas
    • ½ Tono
    • A
    • Bb
    • B
    • C
    • Db
    • D
    • Eb
    • E
    • F
    • F#
    • G
    • Ab
  • Agregar a la lista

    0 comentarios

    Ver todos los comentarios

    ¿Lograste tocar?

    1 Tocaron 1 Aún no

    ¡Graba un video tocando Star Marker y envíanoslo!

    00:00 / 00:00
    OK