Cifra Club

Always Like This

Bombay Bicycle Club

Chords: Principal (acoustic and electric guitars)
tone: G
Intro:
E|-----x---------------------------------------------------------------------|
B|-9---13--------------------------------------------------------------------|
G|-10--13--------------------------------------------------------------------|
D|-11--15--------------------------------------------------------------------|
A|---------------------------------------------------------------------------|
E|---------------------------------------------------------------------------|

Riff 1:
Guitarra 1 e Baixo (0:31)
E|---------------------------------------------------------------------------|
B|---------------------------------------------------------------------------|
G|----10------------------10-------------------------------------------------|
D|------11------11-13-------11-----------------------------------------------|
A|--------11-11------13-13----88-9-11----------------------------------------|
E|-9-9-----------------------------------------------------------------------|

Guitarra 2
E|-x---x---x-----------------------------------------------------------------|
B|-9--11--13-----------------------------------------------------------------|
G|-10-10--13-----------------------------------------------------------------|
D|-11-11--15-----------------------------------------------------------------|
A|---------------------------------------------------------------------------|
E|---------------------------------------------------------------------------|

Refrão:
(as duas guitarras intercaladas)
E|-22----66-66-66----66-----------------------------------------------------|
B|-22----99-77-66----66-----------------------------------------------------|
G|-33-44-66-88-66-66-66-66--------------------------------------------------|
D|-44-33-88-88-88-88-88-88--------------------------------------------------|
A|-44----66-66-88----88-----------------------------------------------------|
E|-22----------66----66-----------------------------------------------------|

E|-44----44----44----444------------------------------------------------------|
B|-44----44----44----444------------------------------------------------------|
G|-55-55-55-55-55-55-555------------------------------------------------------|
D|-66-66-66-66-66-66-666------------------------------------------------------|
A|-66----66----66----666------------------------------------------------------|
E|-44----44----44----444------------------------------------------------------|

Solo:
E|-------11----------9------------------------------------------------------|
B|---11----11----11---11----------------------------------------------------|
G|-----11----11----11---11--------------------------------------------------|
D|-11----------11-----------------------------------------------------------|
A|--------------------------------------------------------------------------|
E|--------------------------------------------------------------------------|

Riff 1: Com alteração
E|--------------------------------------------------------------------------|
B|--------------------------------------------------------------------------|
G|----11p10---------------10------------------------------------------------|
D|--------13-11-------------------------------------------------------------|
A|-------------13-11-13-13--88-9-11-----------------------------------------|
E|-9-9----------------------------------------------------------------------|
00:00 / 00:00
Other videos of this song
Repeat
Other videos of this song
Composed by Jack Steadman
Collaboration and Review:
  • Nicolas Anderson
102 views
    • ½ Tone
    • A
    • Bb
    • B
    • C
    • Db
    • D
    • Eb
    • E
    • F
    • F#
    • G
    • Ab
  • Add to list
    00:00 / 00:00
    OK